  0
SECTION
  2
HEADER
  9
$ACADVER
  1
AC1024
  9
$ACADMAINTVER
 70
     6
  9
$DWGCODEPAGE
  3
DOS932
  9
$LASTSAVEDBY
  1
HRC747U
  9
$INSBASE
 10
0.0
 20
0.0
 30
0.0
  9
$EXTMIN
 10
0.0
 20
0.0
 30
0.0
  9
$EXTMAX
 10
1680.0
 20
1188.0
 30
0.0
  9
$LIMMIN
 10
0.0
 20
0.0
  9
$LIMMAX
 10
420.0
 20
297.0
  9
$ORTHOMODE
 70
     0
  9
$REGENMODE
 70
     1
  9
$FILLMODE
 70
     1
  9
$QTEXTMODE
 70
     0
  9
$MIRRTEXT
 70
     1
  9
$LTSCALE
 40
10.0
  9
$ATTMODE
 70
     1
  9
$TEXTSIZE
 40
0.0
  9
$TRACEWID
 40
0.05
  9
$TEXTSTYLE
  7
STANDARD
  9
$CLAYER
  8
0
  9
$CELTYPE
  6
BYLAYER
  9
$CECOLOR
 62
   256
  9
$CELTSCALE
 40
1.0
  9
$DISPSILH
 70
     0
  9
$DIMSCALE
 40
1.0
  9
$DIMASZ
 40
0.18
  9
$DIMEXO
 40
0.0625
  9
$DIMDLI
 40
0.38
  9
$DIMRND
 40
0.0
  9
$DIMDLE
 40
0.0
  9
$DIMEXE
 40
0.18
  9
$DIMTP
 40
0.0
  9
$DIMTM
 40
0.0
  9
$DIMTXT
 40
0.18
  9
$DIMCEN
 40
0.09
  9
$DIMTSZ
 40
0.0
  9
$DIMTOL
 70
     0
  9
$DIMLIM
 70
     0
  9
$DIMTIH
 70
     1
  9
$DIMTOH
 70
     1
  9
$DIMSE1
 70
     0
  9
$DIMSE2
 70
     0
  9
$DIMTAD
 70
     0
  9
$DIMZIN
 70
     0
  9
$DIMBLK
  1

  9
$DIMASO
 70
     1
  9
$DIMSHO
 70
     1
  9
$DIMPOST
  1

  9
$DIMAPOST
  1

  9
$DIMALT
 70
     0
  9
$DIMALTD
 70
     2
  9
$DIMALTF
 40
25.4
  9
$DIMLFAC
 40
1.0
  9
$DIMTOFL
 70
     0
  9
$DIMTVP
 40
0.0
  9
$DIMTIX
 70
     0
  9
$DIMSOXD
 70
     0
  9
$DIMSAH
 70
     0
  9
$DIMBLK1
  1

  9
$DIMBLK2
  1

  9
$DIMSTYLE
  2
STANDARD
  9
$DIMCLRD
 70
     0
  9
$DIMCLRE
 70
     0
  9
$DIMCLRT
 70
     0
  9
$DIMTFAC
 40
1.0
  9
$DIMGAP
 40
0.09
  9
$DIMJUST
 70
     0
  9
$DIMSD1
 70
     0
  9
$DIMSD2
 70
     0
  9
$DIMTOLJ
 70
     1
  9
$DIMTZIN
 70
     0
  9
$DIMALTZ
 70
     0
  9
$DIMALTTZ
 70
     0
  9
$DIMUPT
 70
     0
  9
$DIMDEC
 70
     4
  9
$DIMTDEC
 70
     4
  9
$DIMALTU
 70
     2
  9
$DIMALTTD
 70
     2
  9
$DIMTXSTY
  7
STANDARD
  9
$DIMAUNIT
 70
     0
  9
$DIMADEC
 70
     0
  9
$DIMALTRND
 40
0.0
  9
$DIMAZIN
 70
     0
  9
$DIMDSEP
 70
    46
  9
$DIMATFIT
 70
     3
  9
$DIMFRAC
 70
     0
  9
$DIMLDRBLK
  1

  9
$DIMLUNIT
 70
     2
  9
$DIMLWD
 70
    -2
  9
$DIMLWE
 70
    -2
  9
$DIMTMOVE
 70
     2
  9
$DIMFXL
 40
1.0
  9
$DIMFXLON
 70
     0
  9
$DIMJOGANG
 40
0.785398163397
  9
$DIMTFILL
 70
     0
  9
$DIMTFILLCLR
 70
     0
  9
$DIMARCSYM
 70
     0
  9
$DIMLTYPE
  6

  9
$DIMLTEX1
  6

  9
$DIMLTEX2
  6

  9
$DIMTXTDIRECTION
 70
     0
  9
$LUNITS
 70
     2
  9
$LUPREC
 70
     8
  9
$SKETCHINC
 40
0.1
  9
$FILLETRAD
 40
0.0
  9
$AUNITS
 70
     0
  9
$AUPREC
 70
     0
  9
$MENU
  1
acad
  9
$ELEVATION
 40
0.0
  9
$PELEVATION
 40
0.0
  9
$THICKNESS
 40
0.0
  9
$LIMCHECK
 70
     0
  9
$CHAMFERA
 40
0.0
  9
$CHAMFERB
 40
0.0
  9
$CHAMFERC
 40
0.0
  9
$CHAMFERD
 40
0.0
  9
$SKPOLY
 70
     0
  9
$TDCREATE
 40
2455154.62412037
  9
$TDUCREATE
 40
2455154.24912037
  9
$TDUPDATE
 40
2460083.63722728
  9
$TDUUPDATE
 40
2460083.26222728
  9
$TDINDWG
 40
0.004649838
  9
$TDUSRTIMER
 40
0.004649838
  9
$USRTIMER
 70
     1
  9
$ANGBASE
 50
0.0
  9
$ANGDIR
 70
     0
  9
$PDMODE
 70
     0
  9
$PDSIZE
 40
0.0
  9
$PLINEWID
 40
0.0
  9
$SPLFRAME
 70
     0
  9
$SPLINETYPE
 70
     6
  9
$SPLINESEGS
 70
     8
  9
$HANDSEED
  5
1B62
  9
$SURFTAB1
 70
     6
  9
$SURFTAB2
 70
     6
  9
$SURFTYPE
 70
     6
  9
$SURFU
 70
     6
  9
$SURFV
 70
     6
  9
$UCSBASE
  2

  9
$UCSNAME
  2

  9
$UCSORG
 10
0.0
 20
0.0
 30
0.0
  9
$UCSXDIR
 10
1.0
 20
0.0
 30
0.0
  9
$UCSYDIR
 10
0.0
 20
1.0
 30
0.0
  9
$UCSORTHOREF
  2

  9
$UCSORTHOVIEW
 70
     0
  9
$UCSORGTOP
 10
0.0
 20
0.0
 30
0.0
  9
$UCSORGBOTTOM
 10
0.0
 20
0.0
 30
0.0
  9
$UCSORGLEFT
 10
0.0
 20
0.0
 30
0.0
  9
$UCSORGRIGHT
 10
0.0
 20
0.0
 30
0.0
  9
$UCSORGFRONT
 10
0.0
 20
0.0
 30
0.0
  9
$UCSORGBACK
 10
0.0
 20
0.0
 30
0.0
  9
$PUCSBASE
  2

  9
$PUCSNAME
  2

  9
$PUCSORG
 10
0.0
 20
0.0
 30
0.0
  9
$PUCSXDIR
 10
1.0
 20
0.0
 30
0.0
  9
$PUCSYDIR
 10
0.0
 20
1.0
 30
0.0
  9
$PUCSORTHOREF
  2

  9
$PUCSORTHOVIEW
 70
     0
  9
$PUCSORGTOP
 10
0.0
 20
0.0
 30
0.0
  9
$PUCSORGBOTTOM
 10
0.0
 20
0.0
 30
0.0
  9
$PUCSORGLEFT
 10
0.0
 20
0.0
 30
0.0
  9
$PUCSORGRIGHT
 10
0.0
 20
0.0
 30
0.0
  9
$PUCSORGFRONT
 10
0.0
 20
0.0
 30
0.0
  9
$PUCSORGBACK
 10
0.0
 20
0.0
 30
0.0
  9
$USERI1
 70
     0
  9
$USERI2
 70
     0
  9
$USERI3
 70
     0
  9
$USERI4
 70
     0
  9
$USERI5
 70
     0
  9
$USERR1
 40
0.0
  9
$USERR2
 40
0.0
  9
$USERR3
 40
0.0
  9
$USERR4
 40
0.0
  9
$USERR5
 40
0.0
  9
$WORLDVIEW
 70
     1
  9
$SHADEDGE
 70
     3
  9
$SHADEDIF
 70
    70
  9
$TILEMODE
 70
     1
  9
$MAXACTVP
 70
    16
  9
$PINSBASE
 10
0.0
 20
0.0
 30
0.0
  9
$PLIMCHECK
 70
     0
  9
$PEXTMIN
 10
1.000000000000E+20
 20
1.000000000000E+20
 30
1.000000000000E+20
  9
$PEXTMAX
 10
-1.000000000000E+20
 20
-1.000000000000E+20
 30
-1.000000000000E+20
  9
$PLIMMIN
 10
0.0
 20
0.0
  9
$PLIMMAX
 10
12.0
 20
9.0
  9
$UNITMODE
 70
     0
  9
$VISRETAIN
 70
     0
  9
$PLINEGEN
 70
     1
  9
$PSLTSCALE
 70
     0
  9
$TREEDEPTH
 70
  3020
  9
$CMLSTYLE
  2
STANDARD
  9
$CMLJUST
 70
     0
  9
$CMLSCALE
 40
1.0
  9
$PROXYGRAPHICS
 70
     0
  9
$MEASUREMENT
 70
     0
  9
$CELWEIGHT
370
    -1
  9
$ENDCAPS
280
     0
  9
$JOINSTYLE
280
     0
  9
$LWDISPLAY
290
     0
  9
$INSUNITS
 70
     0
  9
$HYPERLINKBASE
  1

  9
$STYLESHEET
  1

  9
$XEDIT
290
     1
  9
$CEPSNTYPE
380
     0
  9
$PSTYLEMODE
290
     1
  9
$FINGERPRINTGUID
  2
{f8f10254-f7f4-428e-8301-585654336388}
  9
$VERSIONGUID
  2
{FAEB1C32-E019-11D5-929B-00C0DF256EC4}
  9
$EXTNAMES
290
     1
  9
$PSVPSCALE
 40
0.0
  9
$OLESTARTUP
290
     0
  9
$SORTENTS
280
   127
  9
$INDEXCTL
280
     0
  9
$HIDETEXT
280
     1
  9
$XCLIPFRAME
280
     2
  9
$HALOGAP
280
     0
  9
$OBSCOLOR
 70
   257
  9
$OBSLTYPE
280
     0
  9
$INTERSECTIONDISPLAY
280
     0
  9
$INTERSECTIONCOLOR
 70
   257
  9
$DIMASSOC
280
     2
  9
$PROJECTNAME
  1

  9
$CAMERADISPLAY
290
     0
  9
$LENSLENGTH
 40
50.0
  9
$CAMERAHEIGHT
 40
0.0
  9
$STEPSPERSEC
 40
24.0
  9
$STEPSIZE
 40
2.0
  9
$3DDWFPREC
 40
2.0
  9
$PSOLWIDTH
 40
0.25
  9
$PSOLHEIGHT
 40
4.0
  9
$LOFTANG1
 40
1.570796326795
  9
$LOFTANG2
 40
1.570796326795
  9
$LOFTMAG1
 40
0.0
  9
$LOFTMAG2
 40
0.0
  9
$LOFTPARAM
 70
     7
  9
$LOFTNORMALS
280
     1
  9
$LATITUDE
 40
37.795
  9
$LONGITUDE
 40
-122.394
  9
$NORTHDIRECTION
 40
0.0
  9
$TIMEZONE
 70
 -8000
  9
$LIGHTGLYPHDISPLAY
280
     1
  9
$TILEMODELIGHTSYNCH
280
     1
  9
$CMATERIAL
347
15E5
  9
$SOLIDHIST
280
     0
  9
$SHOWHIST
280
     1
  9
$DWFFRAME
280
     2
  9
$DGNFRAME
280
     2
  9
$REALWORLDSCALE
290
     1
  9
$INTERFERECOLOR
 62
   256
  9
$CSHADOW
280
     0
  9
$SHADOWPLANELOCATION
 40
0.0
  0
ENDSEC
  0
SECTION
  2
CLASSES
  0
CLASS
  1
LWPOLYLINE
  2
AcDbPolyline
  3
ObjectDBX Classes
 90
        0
 91
        1
280
     0
281
     1
  0
CLASS
  1
IMAGE
  2
AcDbRasterImage
  3
ISM
 90
      127
 91
        5
280
     0
281
     1
  0
CLASS
  1
OLE2FRAME
  2
AcDbOle2Frame
  3
ObjectDBX Classes
 90
        0
 91
        1
280
     0
281
     1
  0
CLASS
  1
HATCH
  2
AcDbHatch
  3
ObjectDBX Classes
 90
        0
 91
        1
280
     0
281
     1
  0
CLASS
  1
DICTIONARYVAR
  2
AcDbDictionaryVar
  3
ObjectDBX Classes
 90
        0
 91
        3
280
     0
281
     0
  0
CLASS
  1
RASTERVARIABLES
  2
AcDbRasterVariables
  3
ISM
 90
        0
 91
        3
280
     0
281
     0
  0
CLASS
  1
IMAGEDEF
  2
AcDbRasterImageDef
  3
ISM
 90
        0
 91
        3
280
     0
281
     0
  0
CLASS
  1
IMAGEDEF_REACTOR
  2
AcDbRasterImageDefReactor
  3
ISM
 90
        1
 91
        3
280
     0
281
     0
  0
CLASS
  1
IDBUFFER
  2
AcDbIdBuffer
  3
ObjectDBX Classes
 90
        0
 91
        3
280
     0
281
     0
  0
CLASS
  1
SPATIAL_FILTER
  2
AcDbSpatialFilter
  3
ObjectDBX Classes
 90
        0
 91
        3
280
     0
281
     0
  0
CLASS
  1
XRECORD
  2
AcDbXrecord
  3
ObjectDBX Classes
 90
        0
 91
        1
280
     0
281
     0
  0
CLASS
  1
SORTENTSTABLE
  2
AcDbSortentsTable
  3
ObjectDBX Classes
 90
        0
 91
        3
280
     0
281
     0
  0
CLASS
  1
LAYER_INDEX
  2
AcDbLayerIndex
  3
ObjectDBX Classes
 90
        0
 91
        3
280
     0
281
     0
  0
CLASS
  1
SPATIAL_INDEX
  2
AcDbSpatialIndex
  3
AutoCAD 2000
 90
        0
 91
        3
280
     0
281
     0
  0
CLASS
  1
OBJECT_PTR
  2
CAseDLPNTableRecord
  3
ASE-LPNTableRecord
 90
        1
 91
        3
280
     0
281
     0
  0
CLASS
  1
ACDBDICTIONARYWDFLT
  2
AcDbDictionaryWithDefault
  3
ObjectDBX Classes
 90
        0
 91
        3
280
     0
281
     0
  0
CLASS
  1
SCALE
  2
AcDbScale
  3
ObjectDBX Classes
 90
     1153
 91
        3
280
     0
281
     0
  0
CLASS
  1
VISUALSTYLE
  2
AcDbVisualStyle
  3
ObjectDBX Classes
 90
     4095
 91
        3
280
     0
281
     0
  0
CLASS
  1
MATERIAL
  2
AcDbMaterial
  3
ObjectDBX Classes
 90
     1153
 91
        3
280
     0
281
     0
  0
CLASS
  1
TABLESTYLE
  2
AcDbTableStyle
  3
ObjectDBX Classes
 90
     4095
 91
        3
280
     0
281
     0
  0
CLASS
  1
MLEADERSTYLE
  2
AcDbMLeaderStyle
  3
ACDB_MLEADERSTYLE_CLASS
 90
     4095
 91
        3
280
     0
281
     0
  0
CLASS
  1
SUN
  2
AcDbSun
  3
SCENEOE
 90
     1153
 91
        3
280
     0
281
     0
  0
CLASS
  1
CELLSTYLEMAP
  2
AcDbCellStyleMap
  3
ObjectDBX Classes
 90
     1152
 91
        3
280
     0
281
     0
  0
CLASS
  1
ACAD_TABLE
  2
AcDbTable
  3
ObjectDBX Classes
 90
     1025
 91
        3
280
     0
281
     1
  0
CLASS
  1
BdmDbPersIdManager
  2
BdmDbPersIdManager
  3
BricsCAD|Description: model data
 90
     1025
 91
        3
280
     0
281
     0
  0
CLASS
  1
TABLECONTENT
  2
AcDbTableContent
  3
ObjectDBX Classes
 90
     1152
 91
        4
280
     0
281
     0
  0
CLASS
  1
TABLEGEOMETRY
  2
AcDbTableGeometry
  3
ObjectDBX Classes
 90
     1152
 91
        3
280
     0
281
     0
  0
CLASS
  1
FIELDLIST
  2
AcDbFieldList
  3
ObjectDBX Classes
 90
     1152
 91
        3
280
     0
281
     0
  0
ENDSEC
  0
SECTION
  2
TABLES
  0
TABLE
  2
VPORT
  5
7
330
0
100
AcDbSymbolTable
 70
     1
  0
VPORT
  5
15
330
7
100
AcDbSymbolTableRecord
100
AcDbViewportTableRecord
  2
*ACTIVE
 70
     0
 10
0.0
 20
0.0
 11
1.0
 21
1.0
 12
840.0
 22
594.0
 13
0.0
 23
0.0
 14
1.0
 24
1.0
 15
0.0
 25
0.0
 16
0.0
 26
0.0
 36
1.0
 17
0.0
 27
0.0
 37
0.0
 40
1211.76
 41
1.998180163785
 42
50.0
 43
0.0
 44
0.0
 50
0.0
 51
0.0
 71
    16
 72
   100
 73
     1
 74
     1
 75
     0
 76
     0
 77
     0
 78
     0
281
     0
 65
     1
110
0.0
120
0.0
130
0.0
111
1.0
121
0.0
131
0.0
112
0.0
122
1.0
132
0.0
 79
     0
146
0.0
348
15D0
 60
     3
 61
     5
292
     0
282
     1
141
0.0
142
0.0
 63
   250
421
  3355443
361
15ED
  0
ENDTAB
  0
TABLE
  2
LTYPE
  5
4
330
0
100
AcDbSymbolTable
 70
     4
  0
LTYPE
  5
11
330
4
100
AcDbSymbolTableRecord
100
AcDbLinetypeTableRecord
  2
BYBLOCK
 70
     0
  3

 72
    65
 73
     0
 40
0.0
  0
LTYPE
  5
12
330
4
100
AcDbSymbolTableRecord
100
AcDbLinetypeTableRecord
  2
BYLAYER
 70
     0
  3

 72
    65
 73
     0
 40
0.0
  0
LTYPE
  5
13
330
4
100
AcDbSymbolTableRecord
100
AcDbLinetypeTableRecord
  2
CONTINUOUS
 70
     0
  3
Solid line
 72
    65
 73
     0
 40
0.0
  0
LTYPE
  5
103D
330
4
100
AcDbSymbolTableRecord
100
AcDbLinetypeTableRecord
  2
DASHED
 70
     0
  3
__ __ __ __ __ __ __ __ __ __ __ __ _
 72
    65
 73
     2
 40
0.75
 49
0.5
 74
     0
 49
-0.25
 74
     0
  0
LTYPE
  5
144A
330
4
100
AcDbSymbolTableRecord
100
AcDbLinetypeTableRecord
  2
CENTER
 70
     0
  3
____ _ ____ _ ____ _ ____ _ ____ _ __
 72
    65
 73
     4
 40
2.0
 49
1.25
 74
     0
 49
-0.25
 74
     0
 49
0.25
 74
     0
 49
-0.25
 74
     0
  0
LTYPE
  5
1642
330
4
100
AcDbSymbolTableRecord
100
AcDbLinetypeTableRecord
  2
HIDDEN
 70
     0
  3
__ __ __ __ __ __ __ __ __ __ __ __ __ __ __ __
 72
    65
 73
     2
 40
0.375
 49
0.25
 74
     0
 49
-0.125
 74
     0
  0
ENDTAB
  0
TABLE
  2
LAYER
  5
2
102
{ACAD_XDICTIONARY
360
18BD
102
}
330
0
100
AcDbSymbolTable
 70
    19
  0
LAYER
  5
14
330
2
100
AcDbSymbolTableRecord
100
AcDbLayerTableRecord
  2
0
 70
     0
 62
     7
  6
CONTINUOUS
370
    -3
390
15A5
347
15E7
  0
LAYER
  5
163D
102
{ACAD_XDICTIONARY
360
163E
102
}
330
2
100
AcDbSymbolTableRecord
100
AcDbLayerTableRecord
  2
寸法線
 70
     0
 62
     7
  6
CONTINUOUS
370
     9
390
15A5
347
15E7
  0
LAYER
  5
1641
330
2
100
AcDbSymbolTableRecord
100
AcDbLayerTableRecord
  2
仮想線
 70
     0
 62
    44
  6
HIDDEN
290
     0
370
     5
390
15A5
347
15E7
1001
AcAecLayerStandard
1000

1000

1001
AcCmTransparency
1071
        0
  0
LAYER
  5
1645
330
2
100
AcDbSymbolTableRecord
100
AcDbLayerTableRecord
  2
表題欄
 70
     0
 62
     7
  6
CONTINUOUS
370
     9
390
15A5
347
15E7
1001
AcAecLayerStandard
1000

1000

1001
AcCmTransparency
1071
        0
  0
LAYER
  5
1646
330
2
100
AcDbSymbolTableRecord
100
AcDbLayerTableRecord
  2
輪郭線
 70
     0
 62
    40
  6
CONTINUOUS
370
    15
390
15A5
347
15E7
1001
AcAecLayerStandard
1000

1000

1001
AcCmTransparency
1071
        0
  0
LAYER
  5
1647
330
2
100
AcDbSymbolTableRecord
100
AcDbLayerTableRecord
  2
文字
 70
     0
 62
     7
  6
CONTINUOUS
370
     9
390
15A5
347
15E7
1001
AcAecLayerStandard
1000

1000

1001
AcCmTransparency
1071
        0
  0
LAYER
  5
1648
330
2
100
AcDbSymbolTableRecord
100
AcDbLayerTableRecord
  2
構築線
 70
     0
 62
     1
  6
CONTINUOUS
290
     0
370
     0
390
15A5
347
15E7
1001
AcAecLayerStandard
1000

1000

1001
AcCmTransparency
1071
        0
  0
LAYER
  5
1649
330
2
100
AcDbSymbolTableRecord
100
AcDbLayerTableRecord
  2
図面枠
 70
     0
 62
     7
  6
CONTINUOUS
290
     0
370
     9
390
15A5
347
15E7
1001
AcAecLayerStandard
1000

1000

1001
AcCmTransparency
1071
        0
  0
LAYER
  5
164A
102
{ACAD_XDICTIONARY
360
164B
102
}
330
2
100
AcDbSymbolTableRecord
100
AcDbLayerTableRecord
  2
部材(積層鋼板)
 70
     0
 62
     7
  6
CONTINUOUS
370
    15
390
15A5
347
15E7
1001
AcAecLayerStandard
1000

1000

  0
LAYER
  5
164D
330
2
100
AcDbSymbolTableRecord
100
AcDbLayerTableRecord
  2
中心線
 70
     0
 62
    44
  6
CENTER
370
     5
390
15A5
347
15E7
1001
AcAecLayerStandard
1000

1000

1001
AcCmTransparency
1071
        0
  0
LAYER
  5
164F
330
2
100
AcDbSymbolTableRecord
100
AcDbLayerTableRecord
  2
ブチルﾃｰﾌﾟ
 70
     0
 62
     7
  6
CONTINUOUS
370
     9
390
15A5
347
15E7
1001
AcAecLayerStandard
1000

1000

1001
AcCmTransparency
1071
        0
  0
LAYER
  5
1650
330
2
100
AcDbSymbolTableRecord
100
AcDbLayerTableRecord
  2
実線
 70
     0
 62
     7
  6
CONTINUOUS
370
     9
390
15A5
347
15E7
1001
AcAecLayerStandard
1000

1000

1001
AcCmTransparency
1071
        0
  0
LAYER
  5
1651
330
2
100
AcDbSymbolTableRecord
100
AcDbLayerTableRecord
  2
IBｼｰﾄ
 70
     0
 62
     7
  6
CONTINUOUS
370
    18
390
15A5
347
15E7
1001
AcAecLayerStandard
1000

1000

1001
AcCmTransparency
1071
        0
  0
LAYER
  5
1652
330
2
100
AcDbSymbolTableRecord
100
AcDbLayerTableRecord
  2
IBリキッド
 70
     0
 62
     7
  6
CONTINUOUS
370
    13
390
15A5
347
15E7
1001
AcAecLayerStandard
1000

1000

1001
AcCmTransparency
1071
        0
  0
LAYER
  5
1653
330
2
100
AcDbSymbolTableRecord
100
AcDbLayerTableRecord
  2
部材(ﾋﾞｽ類)
 70
     0
 62
     7
  6
CONTINUOUS
370
    13
390
15A5
347
15E7
1001
AcAecLayerStandard
1000

1000

1001
AcCmTransparency
1071
        0
  0
LAYER
  5
1654
330
2
100
AcDbSymbolTableRecord
100
AcDbLayerTableRecord
  2
シーリング(IBｼﾘｺｰﾝ)
 70
     0
 62
     7
  6
CONTINUOUS
370
    13
390
15A5
347
15E7
1001
AcAecLayerStandard
1000

1000

1001
AcCmTransparency
1071
        0
  0
LAYER
  5
1655
330
2
100
AcDbSymbolTableRecord
100
AcDbLayerTableRecord
  2
GL鋼板
 70
     0
 62
     7
  6
CONTINUOUS
370
    13
390
15A5
347
15E7
1001
AcAecLayerStandard
1000

1000

1001
AcCmTransparency
1071
        0
  0
LAYER
  5
1656
330
2
100
AcDbSymbolTableRecord
100
AcDbLayerTableRecord
  2
野地板
 70
     0
 62
    45
  6
CONTINUOUS
370
    13
390
15A5
347
15E7
1001
AcAecLayerStandard
1000

1000

1001
AcCmTransparency
1071
        0
  0
LAYER
  5
18CA
330
2
100
AcDbSymbolTableRecord
100
AcDbLayerTableRecord
  2
Defpoints
 70
     0
 62
     7
  6
CONTINUOUS
290
     0
370
    -3
390
15A5
347
15E7
  0
ENDTAB
  0
TABLE
  2
STYLE
  5
3
330
0
100
AcDbSymbolTable
 70
     4
  0
STYLE
  5
17
330
3
100
AcDbSymbolTableRecord
100
AcDbTextStyleTableRecord
  2
STANDARD
 70
     0
 40
0.0
 41
1.0
 50
0.0
 71
     0
 42
0.0
  3
txt
  4
BIGFONT
  0
STYLE
  5
1E
330
3
100
AcDbSymbolTableRecord
100
AcDbTextStyleTableRecord
  2
TATEGAKI
 70
     4
 40
0.0
 41
1.0
 50
0.0
 71
     0
 42
0.0
  3
txt
  4
BIGFONT
  0
STYLE
  5
165B
330
3
100
AcDbSymbolTableRecord
100
AcDbTextStyleTableRecord
  2
基本スタイル
 70
     0
 40
0.0
 41
1.0
 50
0.0
 71
     0
 42
0.0
  3
msgothic.ttc
  4

1001
ACAD
1000
MS Gothic
1071
    32817
  0
STYLE
  5
165C
330
3
100
AcDbSymbolTableRecord
100
AcDbTextStyleTableRecord
  2
ＭＳ ゴシック
 70
     0
 40
6.0
 41
1.0
 50
0.0
 71
     0
 42
0.0
  3
msgothic.ttc
  4

1001
ACAD
1000
MS Gothic
1071
    32817
  0
ENDTAB
  0
TABLE
  2
VIEW
  5
5
330
0
100
AcDbSymbolTable
 70
     0
  0
ENDTAB
  0
TABLE
  2
UCS
  5
6
330
0
100
AcDbSymbolTable
 70
     0
  0
ENDTAB
  0
TABLE
  2
APPID
  5
8
330
0
100
AcDbSymbolTable
 70
     6
  0
APPID
  5
16
330
8
100
AcDbSymbolTableRecord
100
AcDbRegAppTableRecord
  2
ACAD
 70
     0
  0
APPID
  5
1632
330
8
100
AcDbSymbolTableRecord
100
AcDbRegAppTableRecord
  2
ACAD_MLEADERVER
 70
     0
  0
APPID
  5
1643
330
8
100
AcDbSymbolTableRecord
100
AcDbRegAppTableRecord
  2
AcAecLayerStandard
 70
     0
  0
APPID
  5
1644
330
8
100
AcDbSymbolTableRecord
100
AcDbRegAppTableRecord
  2
AcCmTransparency
 70
     0
  0
APPID
  5
1659
330
8
100
AcDbSymbolTableRecord
100
AcDbRegAppTableRecord
  2
AcadAnnotative
 70
     0
  0
APPID
  5
165A
330
8
100
AcDbSymbolTableRecord
100
AcDbRegAppTableRecord
  2
HATCHBACKGROUNDCOLOR
 70
     0
  0
ENDTAB
  0
TABLE
  2
DIMSTYLE
  5
9
330
0
100
AcDbSymbolTable
 70
     1
100
AcDbDimStyleTable
  0
DIMSTYLE
105
18
330
9
100
AcDbSymbolTableRecord
100
AcDbDimStyleTableRecord
  2
STANDARD
 70
     0
178
     0
289
     0
340
17
  0
ENDTAB
  0
TABLE
  2
BLOCK_RECORD
  5
1
330
0
100
AcDbSymbolTable
 70
    36
  0
BLOCK_RECORD
  5
A
330
1
100
AcDbSymbolTableRecord
100
AcDbBlockTableRecord
  2
*MODEL_SPACE
340
15C9
 70
     0
280
     1
281
     0
  0
BLOCK_RECORD
  5
B
330
1
100
AcDbSymbolTableRecord
100
AcDbBlockTableRecord
  2
*PAPER_SPACE
340
15CA
 70
     0
280
     1
281
     0
  0
BLOCK_RECORD
  5
16A2
102
{ACAD_XDICTIONARY
360
16A3
102
}
330
1
100
AcDbSymbolTableRecord
100
AcDbBlockTableRecord
  2
*T1
340
0
 70
     0
280
     1
281
     0
  0
BLOCK_RECORD
  5
16B2
102
{ACAD_XDICTIONARY
360
16B3
102
}
330
1
100
AcDbSymbolTableRecord
100
AcDbBlockTableRecord
  2
囲い文字1
340
0
102
{BLKREFS
331
16B1
331
18C3
331
1A90
331
1AB5
331
1ABD
331
1AD5
331
1AE5
102
}
 70
     4
280
     1
281
     0
1001
AcadAnnotative
1000
AnnotativeData
1002
{
1070
     1
1070
     0
1002
}
1001
ACAD
1000
DesignCenter Data
1002
{
1070
     1
1070
     4
1002
}
  0
BLOCK_RECORD
  5
16C3
102
{ACAD_XDICTIONARY
360
16C4
102
}
330
1
100
AcDbSymbolTableRecord
100
AcDbBlockTableRecord
  2
囲い文字2
340
0
102
{BLKREFS
331
16C2
331
18C5
331
1A92
331
1AB7
331
1ABF
331
1AD7
331
1AE9
102
}
 70
     4
280
     1
281
     0
1001
AcadAnnotative
1000
AnnotativeData
1002
{
1070
     1
1070
     0
1002
}
1001
ACAD
1000
DesignCenter Data
1002
{
1070
     1
1070
     4
1002
}
  0
BLOCK_RECORD
  5
16D4
102
{ACAD_XDICTIONARY
360
16D5
102
}
330
1
100
AcDbSymbolTableRecord
100
AcDbBlockTableRecord
  2
囲い文字3
340
0
102
{BLKREFS
331
16D3
331
18C7
331
1A94
331
1AB9
331
1AC1
331
1AD9
331
1AED
102
}
 70
     4
280
     1
281
     0
1001
AcadAnnotative
1000
AnnotativeData
1002
{
1070
     1
1070
     0
1002
}
1001
ACAD
1000
DesignCenter Data
1002
{
1070
     1
1070
     4
1002
}
  0
BLOCK_RECORD
  5
16E5
102
{ACAD_XDICTIONARY
360
16E6
102
}
330
1
100
AcDbSymbolTableRecord
100
AcDbBlockTableRecord
  2
囲い文字4
340
0
102
{BLKREFS
331
16E4
331
18C9
331
1A96
331
1ABB
331
1AC3
331
1ADB
331
1AF1
102
}
 70
     4
280
     1
281
     0
1001
AcadAnnotative
1000
AnnotativeData
1002
{
1070
     1
1070
     0
1002
}
1001
ACAD
1000
DesignCenter Data
1002
{
1070
     1
1070
     4
1002
}
  0
BLOCK_RECORD
  5
16AC
102
{ACAD_XDICTIONARY
360
16AD
102
}
330
1
100
AcDbSymbolTableRecord
100
AcDbBlockTableRecord
  2
*U6
340
0
102
{BLKREFS
331
16AB
102
}
 70
     0
280
     1
281
     0
  0
BLOCK_RECORD
  5
16BD
102
{ACAD_XDICTIONARY
360
16BE
102
}
330
1
100
AcDbSymbolTableRecord
100
AcDbBlockTableRecord
  2
*U7
340
0
102
{BLKREFS
331
16BC
102
}
 70
     0
280
     1
281
     0
  0
BLOCK_RECORD
  5
16CE
102
{ACAD_XDICTIONARY
360
16CF
102
}
330
1
100
AcDbSymbolTableRecord
100
AcDbBlockTableRecord
  2
*U8
340
0
102
{BLKREFS
331
16CD
102
}
 70
     0
280
     1
281
     0
  0
BLOCK_RECORD
  5
16DF
102
{ACAD_XDICTIONARY
360
16E0
102
}
330
1
100
AcDbSymbolTableRecord
100
AcDbBlockTableRecord
  2
*U9
340
0
102
{BLKREFS
331
16DE
102
}
 70
     0
280
     1
281
     0
  0
BLOCK_RECORD
  5
16FC
102
{ACAD_XDICTIONARY
360
16FD
102
}
330
1
100
AcDbSymbolTableRecord
100
AcDbBlockTableRecord
  2
表題欄(定義)
340
0
102
{BLKREFS
331
0
331
1900
102
}
 70
     4
280
     1
281
     0
1001
AcadAnnotative
1000
AnnotativeData
1002
{
1070
     1
1070
     0
1002
}
1001
ACAD
1000
DesignCenter Data
1002
{
1070
     1
1070
     4
1002
}
  0
BLOCK_RECORD
  5
18C1
330
1
100
AcDbSymbolTableRecord
100
AcDbBlockTableRecord
  2
*T11
340
0
102
{BLKREFS
331
0
102
}
 70
     0
280
     1
281
     0
  0
BLOCK_RECORD
  5
18C2
330
1
100
AcDbSymbolTableRecord
100
AcDbBlockTableRecord
  2
*U12
340
0
102
{BLKREFS
331
18CF
102
}
 70
     0
280
     1
281
     0
  0
BLOCK_RECORD
  5
18C4
330
1
100
AcDbSymbolTableRecord
100
AcDbBlockTableRecord
  2
*U13
340
0
102
{BLKREFS
331
18D0
102
}
 70
     0
280
     1
281
     0
  0
BLOCK_RECORD
  5
18C6
330
1
100
AcDbSymbolTableRecord
100
AcDbBlockTableRecord
  2
*U14
340
0
102
{BLKREFS
331
18D1
102
}
 70
     0
280
     1
281
     0
  0
BLOCK_RECORD
  5
18C8
330
1
100
AcDbSymbolTableRecord
100
AcDbBlockTableRecord
  2
*U15
340
0
102
{BLKREFS
331
18D2
102
}
 70
     0
280
     1
281
     0
  0
BLOCK_RECORD
  5
1A8E
330
1
100
AcDbSymbolTableRecord
100
AcDbBlockTableRecord
  2
*T16
340
0
102
{BLKREFS
331
18FF
102
}
 70
     0
280
     1
281
     0
  0
BLOCK_RECORD
  5
1A8F
330
1
100
AcDbSymbolTableRecord
100
AcDbBlockTableRecord
  2
*U17
340
0
102
{BLKREFS
331
1A9B
102
}
 70
     0
280
     1
281
     0
  0
BLOCK_RECORD
  5
1A91
330
1
100
AcDbSymbolTableRecord
100
AcDbBlockTableRecord
  2
*U18
340
0
102
{BLKREFS
331
1A9C
102
}
 70
     0
280
     1
281
     0
  0
BLOCK_RECORD
  5
1A93
330
1
100
AcDbSymbolTableRecord
100
AcDbBlockTableRecord
  2
*U19
340
0
102
{BLKREFS
331
1A9D
102
}
 70
     0
280
     1
281
     0
  0
BLOCK_RECORD
  5
1A95
330
1
100
AcDbSymbolTableRecord
100
AcDbBlockTableRecord
  2
*U20
340
0
102
{BLKREFS
331
1A9E
102
}
 70
     0
280
     1
281
     0
  0
BLOCK_RECORD
  5
1AB4
330
1
100
AcDbSymbolTableRecord
100
AcDbBlockTableRecord
  2
*U21
340
0
 70
     0
280
     1
281
     0
  0
BLOCK_RECORD
  5
1AB6
330
1
100
AcDbSymbolTableRecord
100
AcDbBlockTableRecord
  2
*U22
340
0
 70
     0
280
     1
281
     0
  0
BLOCK_RECORD
  5
1AB8
330
1
100
AcDbSymbolTableRecord
100
AcDbBlockTableRecord
  2
*U23
340
0
 70
     0
280
     1
281
     0
  0
BLOCK_RECORD
  5
1ABA
330
1
100
AcDbSymbolTableRecord
100
AcDbBlockTableRecord
  2
*U24
340
0
 70
     0
280
     1
281
     0
  0
BLOCK_RECORD
  5
1ABC
330
1
100
AcDbSymbolTableRecord
100
AcDbBlockTableRecord
  2
*U25
340
0
 70
     0
280
     1
281
     0
  0
BLOCK_RECORD
  5
1ABE
330
1
100
AcDbSymbolTableRecord
100
AcDbBlockTableRecord
  2
*U26
340
0
 70
     0
280
     1
281
     0
  0
BLOCK_RECORD
  5
1AC0
330
1
100
AcDbSymbolTableRecord
100
AcDbBlockTableRecord
  2
*U27
340
0
 70
     0
280
     1
281
     0
  0
BLOCK_RECORD
  5
1AC2
330
1
100
AcDbSymbolTableRecord
100
AcDbBlockTableRecord
  2
*U28
340
0
 70
     0
280
     1
281
     0
  0
BLOCK_RECORD
  5
1AD4
330
1
100
AcDbSymbolTableRecord
100
AcDbBlockTableRecord
  2
*U29
340
0
 70
     0
280
     1
281
     0
  0
BLOCK_RECORD
  5
1AD6
330
1
100
AcDbSymbolTableRecord
100
AcDbBlockTableRecord
  2
*U30
340
0
 70
     0
280
     1
281
     0
  0
BLOCK_RECORD
  5
1AD8
330
1
100
AcDbSymbolTableRecord
100
AcDbBlockTableRecord
  2
*U31
340
0
 70
     0
280
     1
281
     0
  0
BLOCK_RECORD
  5
1ADA
330
1
100
AcDbSymbolTableRecord
100
AcDbBlockTableRecord
  2
*U32
340
0
 70
     0
280
     1
281
     0
  0
BLOCK_RECORD
  5
1AE4
330
1
100
AcDbSymbolTableRecord
100
AcDbBlockTableRecord
  2
*U33
340
0
 70
     0
280
     1
281
     0
  0
BLOCK_RECORD
  5
1AE8
330
1
100
AcDbSymbolTableRecord
100
AcDbBlockTableRecord
  2
*U34
340
0
 70
     0
280
     1
281
     0
  0
BLOCK_RECORD
  5
1AEC
330
1
100
AcDbSymbolTableRecord
100
AcDbBlockTableRecord
  2
*U35
340
0
 70
     0
280
     1
281
     0
  0
BLOCK_RECORD
  5
1AF0
330
1
100
AcDbSymbolTableRecord
100
AcDbBlockTableRecord
  2
*U36
340
0
 70
     0
280
     1
281
     0
  0
ENDTAB
  0
ENDSEC
  0
SECTION
  2
BLOCKS
  0
BLOCK
  5
D
330
A
100
AcDbEntity
  8
0
100
AcDbBlockBegin
  2
*MODEL_SPACE
 70
     0
 10
0.0
 20
0.0
 30
0.0
  3
*MODEL_SPACE
  1

  0
ENDBLK
  5
E
330
A
100
AcDbEntity
  8
0
100
AcDbBlockEnd
  0
BLOCK
  5
F
330
B
100
AcDbEntity
 67
     1
  8
0
100
AcDbBlockBegin
  2
*PAPER_SPACE
 70
     0
 10
0.0
 20
0.0
 30
0.0
  3
*PAPER_SPACE
  1

  0
ENDBLK
  5
10
330
B
100
AcDbEntity
 67
     1
  8
0
100
AcDbBlockEnd
  0
BLOCK
  5
18DE
330
16A2
100
AcDbEntity
  8
0
100
AcDbBlockBegin
  2
*T1
 70
     1
 10
0.0
 20
0.0
 30
0.0
  3
*T1
  1

  0
MTEXT
  5
16A7
330
16A2
100
AcDbEntity
  8
表題欄
 62
     0
100
AcDbMText
 10
18.75
 20
6.875
 30
0.0
 40
7.5
 41
33.75
 46
0.0
 71
     5
 72
     5
  1
符号
  7
ＭＳ ゴシック
 73
     1
 44
1.0
  0
MTEXT
  5
16A8
330
16A2
100
AcDbEntity
  8
表題欄
 62
     0
100
AcDbMText
 10
62.5
 20
6.875
 30
0.0
 40
7.5
 41
46.25
 46
0.0
 71
     5
 72
     5
  1
日付
  7
ＭＳ ゴシック
 73
     1
 44
1.0
  0
MTEXT
  5
16A9
330
16A2
100
AcDbEntity
  8
表題欄
 62
     0
100
AcDbMText
 10
106.25
 20
6.875
 30
0.0
 40
7.5
 41
33.75
 46
0.0
 71
     5
 72
     5
  1
訂正者
  7
ＭＳ ゴシック
 73
     1
 44
1.0
  0
MTEXT
  5
16AA
330
16A2
100
AcDbEntity
  8
表題欄
 62
     0
100
AcDbMText
 10
287.5
 20
6.875
 30
0.0
 40
7.5
 41
321.25
 46
0.0
 71
     5
 72
     5
  1
訂正概要
  7
ＭＳ ゴシック
 73
     1
 44
1.0
  0
INSERT
  5
16AB
330
16A2
100
AcDbEntity
  8
表題欄
 62
     0
100
AcDbBlockReference
  2
*U6
 10
12.976497308098
 20
15.625
 30
0.0
  0
INSERT
  5
16BC
330
16A2
100
AcDbEntity
  8
表題欄
 62
     0
100
AcDbBlockReference
  2
*U7
 10
12.976497308098
 20
29.375
 30
0.0
  0
INSERT
  5
16CD
330
16A2
100
AcDbEntity
  8
表題欄
 62
     0
100
AcDbBlockReference
  2
*U8
 10
12.976497308098
 20
43.125
 30
0.0
  0
INSERT
  5
16DE
330
16A2
100
AcDbEntity
  8
表題欄
 62
     0
100
AcDbBlockReference
  2
*U9
 10
12.976497308098
 20
56.875
 30
0.0
  0
LINE
  5
16EF
330
16A2
100
AcDbEntity
  8
表題欄
  6
ByBlock
 62
     0
370
    -2
100
AcDbLine
 10
0.0
 20
0.0
 30
0.0
 11
450.0
 21
0.0
 31
0.0
  0
LINE
  5
16F0
330
16A2
100
AcDbEntity
  8
表題欄
  6
ByBlock
 62
     0
370
    -2
100
AcDbLine
 10
0.0
 20
13.75
 30
0.0
 11
450.0
 21
13.75
 31
0.0
  0
LINE
  5
16F1
330
16A2
100
AcDbEntity
  8
表題欄
  6
ByBlock
 62
     0
370
    -2
100
AcDbLine
 10
0.0
 20
27.5
 30
0.0
 11
450.0
 21
27.5
 31
0.0
  0
LINE
  5
16F2
330
16A2
100
AcDbEntity
  8
表題欄
  6
ByBlock
 62
     0
370
    -2
100
AcDbLine
 10
0.0
 20
41.25
 30
0.0
 11
450.0
 21
41.25
 31
0.0
  0
LINE
  5
16F3
330
16A2
100
AcDbEntity
  8
表題欄
  6
ByBlock
 62
     0
370
    -2
100
AcDbLine
 10
0.0
 20
55.0
 30
0.0
 11
450.0
 21
55.0
 31
0.0
  0
LINE
  5
16F4
330
16A2
100
AcDbEntity
  8
表題欄
  6
ByBlock
 62
     0
370
    -2
100
AcDbLine
 10
0.0
 20
68.75
 30
0.0
 11
450.0
 21
68.75
 31
0.0
  0
LINE
  5
16F5
330
16A2
100
AcDbEntity
  8
表題欄
  6
ByBlock
 62
     0
370
    -2
100
AcDbLine
 10
0.0
 20
0.0
 30
0.0
 11
0.0
 21
68.75
 31
0.0
  0
LINE
  5
16F6
330
16A2
100
AcDbEntity
  8
表題欄
  6
ByBlock
 62
     0
370
    -2
100
AcDbLine
 10
37.5
 20
0.0
 30
0.0
 11
37.5
 21
68.75
 31
0.0
  0
LINE
  5
16F7
330
16A2
100
AcDbEntity
  8
表題欄
  6
ByBlock
 62
     0
370
    -2
100
AcDbLine
 10
87.5
 20
0.0
 30
0.0
 11
87.5
 21
68.75
 31
0.0
  0
LINE
  5
16F8
330
16A2
100
AcDbEntity
  8
表題欄
  6
ByBlock
 62
     0
370
    -2
100
AcDbLine
 10
125.0
 20
0.0
 30
0.0
 11
125.0
 21
68.75
 31
0.0
  0
LINE
  5
16F9
330
16A2
100
AcDbEntity
  8
表題欄
  6
ByBlock
 62
     0
370
    -2
100
AcDbLine
 10
450.0
 20
0.0
 30
0.0
 11
450.0
 21
68.75
 31
0.0
  0
ENDBLK
  5
18DF
330
16A2
100
AcDbEntity
  8
0
100
AcDbBlockEnd
  0
BLOCK
  5
18E2
330
16B2
100
AcDbEntity
  8
0
100
AcDbBlockBegin
  2
囲い文字1
 70
     0
 10
0.0
 20
0.0
 30
0.0
  3
囲い文字1
  1

  0
TEXT
  5
16B8
330
16B2
100
AcDbEntity
  8
文字
 62
     5
100
AcDbText
 10
-0.150726441143
 20
-12.80598100318
 30
0.0
 40
1.9
  1
1
  7
ＭＳ ゴシック
 72
     1
 11
0.467005208226
 21
-11.85598100318
 31
0.0
100
AcDbText
 73
     2
  0
LWPOLYLINE
  5
16B9
330
16B2
100
AcDbEntity
  8
文字
 62
     5
100
AcDbPolyline
 90
        3
 70
     1
 43
0.05
 10
-1.207936290659
 20
-13.006522891064
 10
0.467005208226
 20
-10.105439115294
 10
2.14194670711
 20
-13.006522891064
  0
ENDBLK
  5
18E3
330
16B2
100
AcDbEntity
  8
0
100
AcDbBlockEnd
  0
BLOCK
  5
18E6
330
16C3
100
AcDbEntity
  8
0
100
AcDbBlockBegin
  2
囲い文字2
 70
     0
 10
0.0
 20
0.0
 30
0.0
  3
囲い文字2
  1

  0
TEXT
  5
16C9
330
16C3
100
AcDbEntity
  8
文字
 62
     5
100
AcDbText
 10
-7.36181652199
 20
15.833311817329
 30
0.0
 40
1.9
  1
2
  7
ＭＳ ゴシック
 72
     1
 11
-6.744084872622
 21
16.783311817329
 31
0.0
100
AcDbText
 73
     2
  0
LWPOLYLINE
  5
16CA
330
16C3
100
AcDbEntity
  8
文字
 62
     5
100
AcDbPolyline
 90
        3
 70
     1
 43
0.05
 10
-8.419026371506
 20
15.632769929445
 10
-6.744084872622
 20
18.533853705216
 10
-5.069143373737
 20
15.632769929445
  0
ENDBLK
  5
18E7
330
16C3
100
AcDbEntity
  8
0
100
AcDbBlockEnd
  0
BLOCK
  5
18EA
330
16D4
100
AcDbEntity
  8
0
100
AcDbBlockBegin
  2
囲い文字3
 70
     0
 10
0.0
 20
0.0
 30
0.0
  3
囲い文字3
  1

  0
TEXT
  5
16DA
330
16D4
100
AcDbEntity
  8
文字
 62
     5
100
AcDbText
 10
-3.138684270054
 20
7.425323742515
 30
0.0
 40
1.9
  1
3
  7
ＭＳ ゴシック
 72
     1
 11
-2.520952620685
 21
8.375323742515
 31
0.0
100
AcDbText
 73
     2
  0
LWPOLYLINE
  5
16DB
330
16D4
100
AcDbEntity
  8
文字
 62
     5
100
AcDbPolyline
 90
        3
 70
     1
 43
0.05
 10
-4.19589411957
 20
7.224781854631
 10
-2.520952620685
 20
10.125865630402
 10
-0.846011121801
 20
7.224781854631
  0
ENDBLK
  5
18EB
330
16D4
100
AcDbEntity
  8
0
100
AcDbBlockEnd
  0
BLOCK
  5
18EE
330
16E5
100
AcDbEntity
  8
0
100
AcDbBlockBegin
  2
囲い文字4
 70
     0
 10
0.0
 20
0.0
 30
0.0
  3
囲い文字4
  1

  0
TEXT
  5
16EB
330
16E5
100
AcDbEntity
  8
文字
 62
     5
100
AcDbText
 10
-3.448589732188
 20
5.51332470249
 30
0.0
 40
1.9
  1
4
  7
ＭＳ ゴシック
 72
     1
 11
-2.83085808282
 21
6.46332470249
 31
0.0
100
AcDbText
 73
     2
  0
LWPOLYLINE
  5
16EC
330
16E5
100
AcDbEntity
  8
文字
 62
     5
100
AcDbPolyline
 90
        3
 70
     1
 43
0.05
 10
-4.505799581704
 20
5.312782814606
 10
-2.83085808282
 20
8.213866590377
 10
-1.155916583935
 20
5.312782814606
  0
ENDBLK
  5
18EF
330
16E5
100
AcDbEntity
  8
0
100
AcDbBlockEnd
  0
BLOCK
  5
18E0
330
16AC
100
AcDbEntity
  8
0
100
AcDbBlockBegin
  2
*U6
 70
     1
 10
0.0
 20
0.0
 30
0.0
  3
*U6
  1

  0
INSERT
  5
16B1
330
16AC
100
AcDbEntity
  8
構築線
 62
     0
100
AcDbBlockReference
  2
囲い文字1
 10
4.163741498082
 20
44.833324013919
 30
0.0
 41
3.446987668374
 42
3.446987668374
 43
3.446987668374
  0
ENDBLK
  5
18E1
330
16AC
100
AcDbEntity
  8
0
100
AcDbBlockEnd
  0
BLOCK
  5
18E4
330
16BD
100
AcDbEntity
  8
0
100
AcDbBlockBegin
  2
*U7
 70
     1
 10
0.0
 20
0.0
 30
0.0
  3
*U7
  1

  0
INSERT
  5
16C2
330
16BD
100
AcDbEntity
  8
構築線
 62
     0
100
AcDbBlockReference
  2
囲い文字2
 10
29.020280082295
 20
-53.885965169321
 30
0.0
 41
3.446987668374
 42
3.446987668374
 43
3.446987668374
  0
ENDBLK
  5
18E5
330
16BD
100
AcDbEntity
  8
0
100
AcDbBlockEnd
  0
BLOCK
  5
18E8
330
16CE
100
AcDbEntity
  8
0
100
AcDbBlockBegin
  2
*U8
 70
     1
 10
0.0
 20
0.0
 30
0.0
  3
*U8
  1

  0
INSERT
  5
16D3
330
16CE
100
AcDbEntity
  8
構築線
 62
     0
100
AcDbBlockReference
  2
囲い文字3
 10
14.463195287959
 20
-24.903733959604
 30
0.0
 41
3.446987668374
 42
3.446987668374
 43
3.446987668374
  0
ENDBLK
  5
18E9
330
16CE
100
AcDbEntity
  8
0
100
AcDbBlockEnd
  0
BLOCK
  5
18EC
330
16DF
100
AcDbEntity
  8
0
100
AcDbBlockBegin
  2
*U9
 70
     1
 10
0.0
 20
0.0
 30
0.0
  3
*U9
  1

  0
INSERT
  5
16E4
330
16DF
100
AcDbEntity
  8
構築線
 62
     0
100
AcDbBlockReference
  2
囲い文字4
 10
15.531435594298
 20
-18.313096846695
 30
0.0
 41
3.446987668374
 42
3.446987668374
 43
3.446987668374
  0
ENDBLK
  5
18ED
330
16DF
100
AcDbEntity
  8
0
100
AcDbBlockEnd
  0
BLOCK
  5
18F0
330
16FC
100
AcDbEntity
  8
0
100
AcDbBlockBegin
  2
表題欄(定義)
 70
     2
 10
0.0
 20
0.0
 30
0.0
  3
表題欄(定義)
  1

  0
LINE
  5
1702
330
16FC
100
AcDbEntity
  8
表題欄
100
AcDbLine
 10
-10.971098027232
 20
-50.087425312518
 30
0.0
 11
-10.971098027232
 21
-12.587447994505
 31
0.0
  0
ATTDEF
  5
1703
330
16FC
100
AcDbEntity
  8
表題欄
100
AcDbText
 10
26.845498819392
 20
-41.087447994505
 30
0.0
 40
1.5
  1

  7
ＭＳ ゴシック
 72
     1
 11
26.845498819392
 21
-40.337447994505
 31
0.0
100
AcDbAttributeDefinition
  3
備考
  2
REMARKS
 70
     0
 74
     2
280
     0
  0
ATTDEF
  5
1704
330
16FC
100
AcDbEntity
  8
表題欄
100
AcDbText
 10
12.466401972768
 20
-41.087447994505
 30
0.0
 40
1.5
  1

  7
ＭＳ ゴシック
 72
     1
 11
12.466401972768
 21
-40.337447994505
 31
0.0
100
AcDbAttributeDefinition
  3
縮尺
  2
SCALE
 70
     0
 74
     2
280
     0
  0
ATTDEF
  5
1705
330
16FC
100
AcDbEntity
  8
表題欄
100
AcDbText
 10
13.631096545734
 20
-33.587447994505
 30
0.0
 40
1.5
  1

  7
ＭＳ ゴシック
 72
     1
 11
13.631096545734
 21
-32.837447994505
 31
0.0
100
AcDbAttributeDefinition
  3
図番
  2
DRAWING　NO.
 70
     0
 74
     2
280
     0
  0
ATTDEF
  5
1706
330
16FC
100
AcDbEntity
  8
表題欄
100
AcDbText
 10
11.68036502141
 20
-26.087447994505
 30
0.0
 40
1.5
  1

  7
ＭＳ ゴシック
 72
     1
 11
11.68036502141
 21
-25.337447994505
 31
0.0
100
AcDbAttributeDefinition
  3
部位
  2
POSITION
 70
     0
 74
     2
280
     0
  0
ATTDEF
  5
1707
330
16FC
100
AcDbEntity
  8
表題欄
100
AcDbText
 10
9.729633497089
 20
-18.587447994505
 30
0.0
 40
1.5
  1

  7
ＭＳ ゴシック
 72
     1
 11
9.729633497089
 21
-17.837447994505
 31
0.0
100
AcDbAttributeDefinition
  3
名称
  2
NAME
 70
     0
 74
     2
280
     0
  0
ATTDEF
  5
1708
330
16FC
100
AcDbEntity
  8
表題欄
100
AcDbText
 10
-3.158598027232
 20
-48.587447994505
 30
0.0
 40
1.5
  1

  7
ＭＳ ゴシック
 72
     1
 11
-3.158598027232
 21
-47.837447994505
 31
0.0
100
AcDbAttributeDefinition
  3
製図
  2
DRAWING
 70
     0
 74
     2
280
     0
  0
ATTDEF
  5
1709
330
16FC
100
AcDbEntity
  8
表題欄
100
AcDbText
 10
-3.158598027232
 20
-41.087447994505
 30
0.0
 40
1.5
  1

  7
ＭＳ ゴシック
 72
     1
 11
-3.158598027232
 21
-40.337447994505
 31
0.0
100
AcDbAttributeDefinition
  3
設計
  2
DESIGNED
 70
     0
 74
     2
280
     0
  0
ATTDEF
  5
170A
330
16FC
100
AcDbEntity
  8
表題欄
100
AcDbText
 10
-3.158598027232
 20
-33.587447994505
 30
0.0
 40
1.5
  1

  7
ＭＳ ゴシック
 72
     1
 11
-3.158598027232
 21
-32.837447994505
 31
0.0
100
AcDbAttributeDefinition
  3
検図
  2
CHECKED
 70
     0
 74
     2
280
     0
  0
TEXT
  5
170B
330
16FC
100
AcDbEntity
  8
表題欄
100
AcDbText
 10
-10.456568854787
 20
-22.337436653514
 30
0.0
 40
1.5
  1
出 図  ISSUE
  7
ＭＳ ゴシック
 72
     1
 11
-4.604374281822
 21
-21.587436653514
 31
0.0
100
AcDbText
 73
     2
  0
ATTDEF
  5
170C
330
16FC
100
AcDbEntity
  8
表題欄
100
AcDbText
 10
-3.158598027232
 20
-26.087447994505
 30
0.0
 40
1.5
  1

  7
ＭＳ ゴシック
 72
     1
 11
-3.158598027232
 21
-25.337447994505
 31
0.0
100
AcDbAttributeDefinition
  3
出図
  2
ISSUE
 70
     0
 74
     2
280
     0
  0
ATTDEF
  5
170D
330
16FC
100
AcDbEntity
  8
表題欄
100
AcDbText
 10
-3.158598027232
 20
-18.587447994505
 30
0.0
 40
1.5
  1

  7
ＭＳ ゴシック
 72
     1
 11
-3.158598027232
 21
-17.837447994505
 31
0.0
100
AcDbAttributeDefinition
  3
初版作成日
  2
DATE
 70
     0
 74
     2
280
     0
  0
LINE
  5
170E
330
16FC
100
AcDbEntity
  8
仮想線
100
AcDbLine
 10
7.778901972768
 20
-12.587447994505
 30
0.0
 11
7.778901972768
 21
-50.087447994505
 31
0.0
  0
LINE
  5
170F
330
16FC
100
AcDbEntity
  8
仮想線
100
AcDbLine
 10
7.778901972768
 20
-17.743697994505
 30
0.0
 11
-10.971098027232
 21
-17.743697994505
 31
0.0
  0
LINE
  5
1710
330
16FC
100
AcDbEntity
  8
仮想線
100
AcDbLine
 10
-3.158598027232
 20
-12.587447994505
 30
0.0
 11
-3.158598027232
 21
-50.087447994505
 31
0.0
  0
TEXT
  5
1711
330
16FC
100
AcDbEntity
  8
表題欄
100
AcDbText
 10
20.901158756562
 20
-37.337436653514
 30
0.0
 40
1.5
  1
備 考   REMARKS
  7
ＭＳ ゴシック
 72
     1
 11
28.216401972768
 21
-36.587436653514
 31
0.0
100
AcDbText
 73
     2
  0
LINE
  5
1712
330
16FC
100
AcDbEntity
  8
表題欄
100
AcDbLine
 10
20.278901972768
 20
-35.087447994505
 30
0.0
 11
20.278901972768
 21
-42.587447994505
 31
0.0
  0
TEXT
  5
1713
330
16FC
100
AcDbEntity
  8
表題欄
100
AcDbText
 10
5.364207399803
 20
-37.337413971523
 30
0.0
 40
1.5
  1
縮 尺  SCALE
  7
ＭＳ ゴシック
 72
     1
 11
11.216401972768
 21
-36.587413971523
 31
0.0
100
AcDbText
 73
     2
  0
TEXT
  5
1714
330
16FC
100
AcDbEntity
  8
表題欄
100
AcDbText
 10
5.313110113321
 20
-29.837413971523
 30
0.0
 40
1.5
  1
図 番  DRAWING No.
  7
ＭＳ ゴシック
 72
     1
 11
14.091401972768
 21
-29.087413971523
 31
0.0
100
AcDbText
 73
     2
  0
TEXT
  5
1715
330
16FC
100
AcDbEntity
  8
表題欄
100
AcDbText
 10
5.276158756562
 20
-22.337436653514
 30
0.0
 40
1.5
  1
部 位  POSITION
  7
ＭＳ ゴシック
 72
     1
 11
12.591401972768
 21
-21.587436653514
 31
0.0
100
AcDbText
 73
     2
  0
TEXT
  5
1716
330
16FC
100
AcDbEntity
  8
表題欄
100
AcDbText
 10
5.351890280883
 20
-14.837413971523
 30
0.0
 40
1.5
  1
名 称  NAME
  7
ＭＳ ゴシック
 72
     1
 11
10.716401972768
 21
-14.087413971523
 31
0.0
100
AcDbText
 73
     2
  0
LINE
  5
1717
330
16FC
100
AcDbEntity
  8
仮想線
100
AcDbLine
 10
-10.971098027232
 20
-45.587447994505
 30
0.0
 11
4.653901972768
 21
-45.587447994505
 31
0.0
  0
TEXT
  5
1718
330
16FC
100
AcDbEntity
  8
表題欄
100
AcDbText
 10
-10.236158362358
 20
-44.837436653514
 30
0.0
 40
1.5
  1
製 図  DRAWING
  7
ＭＳ ゴシック
 72
     1
 11
-3.408598027232
 21
-44.087436653514
 31
0.0
100
AcDbText
 73
     2
  0
LINE
  5
1719
330
16FC
100
AcDbEntity
  8
仮想線
100
AcDbLine
 10
-10.971098027232
 20
-38.087447994505
 30
0.0
 11
4.653901972768
 21
-38.087447994505
 31
0.0
  0
TEXT
  5
171A
330
16FC
100
AcDbEntity
  8
表題欄
100
AcDbText
 10
-10.348841243438
 20
-37.337436653514
 30
0.0
 40
1.5
  1
設 計  DESIGNED
  7
ＭＳ ゴシック
 72
     1
 11
-3.033598027232
 21
-36.587436653514
 31
0.0
100
AcDbText
 73
     2
  0
LINE
  5
171B
330
16FC
100
AcDbEntity
  8
仮想線
100
AcDbLine
 10
-10.971098027232
 20
-30.587447994505
 30
0.0
 11
4.653901972768
 21
-30.587447994505
 31
0.0
  0
TEXT
  5
171C
330
16FC
100
AcDbEntity
  8
表題欄
100
AcDbText
 10
-10.486158362358
 20
-29.837436653514
 30
0.0
 40
1.5
  1
検 図  CHECKED
  7
ＭＳ ゴシック
 72
     1
 11
-3.658598027232
 21
-29.087436653514
 31
0.0
100
AcDbText
 73
     2
  0
LINE
  5
171D
330
16FC
100
AcDbEntity
  8
仮想線
100
AcDbLine
 10
-10.971098027232
 20
-23.087447994505
 30
0.0
 11
4.653901972768
 21
-23.087447994505
 31
0.0
  0
LINE
  5
171E
330
16FC
100
AcDbEntity
  8
表題欄
100
AcDbLine
 10
-10.971098027232
 20
-20.087447994505
 30
0.0
 11
54.653901972768
 21
-20.087447994505
 31
0.0
  0
LINE
  5
171F
330
16FC
100
AcDbEntity
  8
仮想線
100
AcDbLine
 10
-10.971098027232
 20
-15.587447994505
 30
0.0
 11
4.653901972768
 21
-15.587447994505
 31
0.0
  0
LINE
  5
1720
330
16FC
100
AcDbEntity
  8
表題欄
100
AcDbLine
 10
-10.971098027232
 20
-42.587447994505
 30
0.0
 11
54.653901972768
 21
-42.587447994505
 31
0.0
  0
LINE
  5
1721
330
16FC
100
AcDbEntity
  8
表題欄
100
AcDbLine
 10
-10.971098027232
 20
-35.087447994505
 30
0.0
 11
54.653901972768
 21
-35.087447994505
 31
0.0
  0
LINE
  5
1722
330
16FC
100
AcDbEntity
  8
表題欄
100
AcDbLine
 10
-10.971098027232
 20
-27.587447994505
 30
0.0
 11
54.653901972768
 21
-27.587447994505
 31
0.0
  0
LINE
  5
1723
330
16FC
100
AcDbEntity
  8
表題欄
100
AcDbLine
 10
-10.971098027232
 20
-20.087447994505
 30
0.0
 11
4.653901972768
 21
-20.087447994505
 31
0.0
  0
LINE
  5
1724
330
16FC
100
AcDbEntity
  8
表題欄
100
AcDbLine
 10
4.653901972768
 20
-12.587425312518
 30
0.0
 11
4.653901972768
 21
-50.087402630532
 31
0.0
  0
LINE
  5
1725
330
16FC
100
AcDbEntity
  8
表題欄
100
AcDbLine
 10
54.653901972768
 20
-12.587425312518
 30
0.0
 11
54.653901972768
 21
-50.087402630532
 31
0.0
  0
LINE
  5
1726
330
16FC
100
AcDbEntity
  8
表題欄
100
AcDbLine
 10
-10.971098027232
 20
-50.087425312518
 30
0.0
 11
54.653901972768
 21
-50.087425312518
 31
0.0
  0
LINE
  5
1727
330
16FC
100
AcDbEntity
  8
表題欄
100
AcDbLine
 10
-10.971098027232
 20
-12.587447994505
 30
0.0
 11
-10.971098027232
 21
-50.087425312518
 31
0.0
  0
LINE
  5
1728
330
16FC
100
AcDbEntity
  8
表題欄
100
AcDbLine
 10
-10.971098027232
 20
-12.587447994505
 30
0.0
 11
54.653901972768
 21
-12.587447994505
 31
0.0
  0
TEXT
  5
1729
330
16FC
100
AcDbEntity
  8
表題欄
100
AcDbText
 10
12.197265287505
 20
-45.694515786829
 30
0.0
 40
2.5
  1
HAYAKAWA RUBER.CO.,LTD
  7
ＭＳ ゴシック
 72
     1
 11
30.078970927119
 21
-44.444515786829
 31
0.0
100
AcDbText
 73
     2
  0
TEXT
  5
172A
330
16FC
100
AcDbEntity
  8
表題欄
100
AcDbText
 10
16.892502341332
 20
-49.236756287726
 30
0.0
 40
2.5
  1
早川ゴム株式会社
  7
ＭＳ ゴシック
 72
     1
 11
29.897379170143
 21
-47.986756287726
 31
0.0
100
AcDbText
 73
     2
  0
TEXT
  5
172B
330
16FC
100
AcDbEntity
  8
表題欄
100
AcDbText
 10
-10.723841243438
 20
-14.837436653514
 30
0.0
 40
1.5
  1
初版作成日 DATE
  7
ＭＳ ゴシック
 72
     1
 11
-3.408598027232
 21
-14.087436653514
 31
0.0
100
AcDbText
 73
     2
  0
TEXT
  5
172C
330
16FC
100
AcDbEntity
  8
表題欄
100
AcDbText
 10
12.829009282394
 20
-48.774815337686
 30
0.0
 40
1.296537313423
  1
早
  7
ＭＳ ゴシック
 72
     4
 11
13.672074685644
 21
-48.192370633613
 31
0.0
100
AcDbText
  0
CIRCLE
  5
172D
330
16FC
100
AcDbEntity
  8
表題欄
100
AcDbCircle
 10
13.672074685644
 20
-48.192370633613
 30
0.0
 40
1.243443373654526
  0
CIRCLE
  5
172E
330
16FC
100
AcDbEntity
  8
表題欄
100
AcDbCircle
 10
14.251608110648
 20
-47.888691940232
 30
0.0
 40
1.899437983206664
  0
ENDBLK
  5
18F1
330
16FC
100
AcDbEntity
  8
0
100
AcDbBlockEnd
  0
BLOCK
  5
18F2
330
18C1
100
AcDbEntity
  8
0
100
AcDbBlockBegin
  2
*T11
 70
     1
 10
0.0
 20
0.0
 30
0.0
  3
*T11
  1

  0
MTEXT
  5
18CB
330
18C1
100
AcDbEntity
  8
表題欄
 62
     0
100
AcDbMText
 10
18.75
 20
6.875
 30
0.0
 40
7.5
 41
33.75
 46
0.0
 71
     5
 72
     5
  1
符号
  7
ＭＳ ゴシック
 73
     1
 44
1.0
  0
MTEXT
  5
18CC
330
18C1
100
AcDbEntity
  8
表題欄
 62
     0
100
AcDbMText
 10
62.5
 20
6.875
 30
0.0
 40
7.5
 41
46.25
 46
0.0
 71
     5
 72
     5
  1
日付
  7
ＭＳ ゴシック
 73
     1
 44
1.0
  0
MTEXT
  5
18CD
330
18C1
100
AcDbEntity
  8
表題欄
 62
     0
100
AcDbMText
 10
106.25
 20
6.875
 30
0.0
 40
7.5
 41
33.75
 46
0.0
 71
     5
 72
     5
  1
訂正者
  7
ＭＳ ゴシック
 73
     1
 44
1.0
  0
MTEXT
  5
18CE
330
18C1
100
AcDbEntity
  8
表題欄
 62
     0
100
AcDbMText
 10
287.5
 20
6.875
 30
0.0
 40
7.5
 41
321.25
 46
0.0
 71
     5
 72
     5
  1
訂正概要
  7
ＭＳ ゴシック
 73
     1
 44
1.0
  0
INSERT
  5
18CF
330
18C1
100
AcDbEntity
  8
表題欄
 62
     0
100
AcDbBlockReference
  2
*U21
 10
12.976497308098
 20
15.625
 30
0.0
  0
INSERT
  5
18D0
330
18C1
100
AcDbEntity
  8
表題欄
 62
     0
100
AcDbBlockReference
  2
*U22
 10
12.976497308098
 20
29.375
 30
0.0
  0
INSERT
  5
18D1
330
18C1
100
AcDbEntity
  8
表題欄
 62
     0
100
AcDbBlockReference
  2
*U23
 10
12.976497308098
 20
43.125
 30
0.0
  0
INSERT
  5
18D2
330
18C1
100
AcDbEntity
  8
表題欄
 62
     0
100
AcDbBlockReference
  2
*U24
 10
12.976497308098
 20
56.875
 30
0.0
  0
LINE
  5
18D3
330
18C1
100
AcDbEntity
  8
表題欄
  6
ByBlock
 62
     0
370
    -2
100
AcDbLine
 10
0.0
 20
0.0
 30
0.0
 11
450.0
 21
0.0
 31
0.0
  0
LINE
  5
18D4
330
18C1
100
AcDbEntity
  8
表題欄
  6
ByBlock
 62
     0
370
    -2
100
AcDbLine
 10
0.0
 20
0.0
 30
0.0
 11
0.0
 21
68.75
 31
0.0
  0
LINE
  5
18D5
330
18C1
100
AcDbEntity
  8
表題欄
  6
ByBlock
 62
     0
370
    -2
100
AcDbLine
 10
37.5
 20
0.0
 30
0.0
 11
37.5
 21
68.75
 31
0.0
  0
LINE
  5
18D6
330
18C1
100
AcDbEntity
  8
表題欄
  6
ByBlock
 62
     0
370
    -2
100
AcDbLine
 10
87.5
 20
0.0
 30
0.0
 11
87.5
 21
68.75
 31
0.0
  0
LINE
  5
18D7
330
18C1
100
AcDbEntity
  8
表題欄
  6
ByBlock
 62
     0
370
    -2
100
AcDbLine
 10
125.0
 20
0.0
 30
0.0
 11
125.0
 21
68.75
 31
0.0
  0
LINE
  5
18D8
330
18C1
100
AcDbEntity
  8
表題欄
  6
ByBlock
 62
     0
370
    -2
100
AcDbLine
 10
450.0
 20
0.0
 30
0.0
 11
450.0
 21
68.75
 31
0.0
  0
LINE
  5
18D9
330
18C1
100
AcDbEntity
  8
表題欄
  6
ByBlock
 62
     0
370
    -2
100
AcDbLine
 10
0.0
 20
13.75
 30
0.0
 11
450.0
 21
13.75
 31
0.0
  0
LINE
  5
18DA
330
18C1
100
AcDbEntity
  8
表題欄
  6
ByBlock
 62
     0
370
    -2
100
AcDbLine
 10
0.0
 20
27.5
 30
0.0
 11
450.0
 21
27.5
 31
0.0
  0
LINE
  5
18DB
330
18C1
100
AcDbEntity
  8
表題欄
  6
ByBlock
 62
     0
370
    -2
100
AcDbLine
 10
0.0
 20
41.25
 30
0.0
 11
450.0
 21
41.25
 31
0.0
  0
LINE
  5
18DC
330
18C1
100
AcDbEntity
  8
表題欄
  6
ByBlock
 62
     0
370
    -2
100
AcDbLine
 10
0.0
 20
55.0
 30
0.0
 11
450.0
 21
55.0
 31
0.0
  0
LINE
  5
18DD
330
18C1
100
AcDbEntity
  8
表題欄
  6
ByBlock
 62
     0
370
    -2
100
AcDbLine
 10
0.0
 20
68.75
 30
0.0
 11
450.0
 21
68.75
 31
0.0
  0
ENDBLK
  5
18F3
330
18C1
100
AcDbEntity
  8
0
100
AcDbBlockEnd
  0
BLOCK
  5
18F4
330
18C2
100
AcDbEntity
  8
0
100
AcDbBlockBegin
  2
*U12
 70
     1
 10
0.0
 20
0.0
 30
0.0
  3
*U12
  1

  0
INSERT
  5
18C3
330
18C2
100
AcDbEntity
  8
0
100
AcDbBlockReference
  2
囲い文字1
 10
4.163741498082
 20
44.833324013919
 30
0.0
 41
3.446987668374
 42
3.446987668374
 43
3.446987668374
  0
ENDBLK
  5
18F5
330
18C2
100
AcDbEntity
  8
0
100
AcDbBlockEnd
  0
BLOCK
  5
18F6
330
18C4
100
AcDbEntity
  8
0
100
AcDbBlockBegin
  2
*U13
 70
     1
 10
0.0
 20
0.0
 30
0.0
  3
*U13
  1

  0
INSERT
  5
18C5
330
18C4
100
AcDbEntity
  8
0
100
AcDbBlockReference
  2
囲い文字2
 10
29.020280082295
 20
-53.885965169321
 30
0.0
 41
3.446987668374
 42
3.446987668374
 43
3.446987668374
  0
ENDBLK
  5
18F7
330
18C4
100
AcDbEntity
  8
0
100
AcDbBlockEnd
  0
BLOCK
  5
18F8
330
18C6
100
AcDbEntity
  8
0
100
AcDbBlockBegin
  2
*U14
 70
     1
 10
0.0
 20
0.0
 30
0.0
  3
*U14
  1

  0
INSERT
  5
18C7
330
18C6
100
AcDbEntity
  8
0
100
AcDbBlockReference
  2
囲い文字3
 10
14.463195287959
 20
-24.903733959604
 30
0.0
 41
3.446987668374
 42
3.446987668374
 43
3.446987668374
  0
ENDBLK
  5
18F9
330
18C6
100
AcDbEntity
  8
0
100
AcDbBlockEnd
  0
BLOCK
  5
18FA
330
18C8
100
AcDbEntity
  8
0
100
AcDbBlockBegin
  2
*U15
 70
     1
 10
0.0
 20
0.0
 30
0.0
  3
*U15
  1

  0
INSERT
  5
18C9
330
18C8
100
AcDbEntity
  8
0
100
AcDbBlockReference
  2
囲い文字4
 10
15.531435594298
 20
-18.313096846695
 30
0.0
 41
3.446987668374
 42
3.446987668374
 43
3.446987668374
  0
ENDBLK
  5
18FB
330
18C8
100
AcDbEntity
  8
0
100
AcDbBlockEnd
  0
BLOCK
  5
1AAA
330
1A8E
100
AcDbEntity
  8
0
100
AcDbBlockBegin
  2
*T16
 70
     1
 10
0.0
 20
0.0
 30
0.0
  3
*T16
  1

  0
MTEXT
  5
1A97
330
1A8E
100
AcDbEntity
  8
表題欄
 62
     0
100
AcDbMText
 10
18.75
 20
6.875
 30
0.0
 40
7.5
 41
33.75
 46
0.0
 71
     5
 72
     5
  1
符号
  7
ＭＳ ゴシック
 73
     1
 44
1.0
  0
MTEXT
  5
1A98
330
1A8E
100
AcDbEntity
  8
表題欄
 62
     0
100
AcDbMText
 10
62.5
 20
6.875
 30
0.0
 40
7.5
 41
46.25
 46
0.0
 71
     5
 72
     5
  1
日付
  7
ＭＳ ゴシック
 73
     1
 44
1.0
  0
MTEXT
  5
1A99
330
1A8E
100
AcDbEntity
  8
表題欄
 62
     0
100
AcDbMText
 10
106.25
 20
6.875
 30
0.0
 40
7.5
 41
33.75
 46
0.0
 71
     5
 72
     5
  1
訂正者
  7
ＭＳ ゴシック
 73
     1
 44
1.0
  0
MTEXT
  5
1A9A
330
1A8E
100
AcDbEntity
  8
表題欄
 62
     0
100
AcDbMText
 10
287.5
 20
6.875
 30
0.0
 40
7.5
 41
321.25
 46
0.0
 71
     5
 72
     5
  1
訂正概要
  7
ＭＳ ゴシック
 73
     1
 44
1.0
  0
INSERT
  5
1A9B
330
1A8E
100
AcDbEntity
  8
表題欄
 62
     0
100
AcDbBlockReference
  2
*U33
 10
12.976497308098
 20
15.625
 30
0.0
  0
INSERT
  5
1A9C
330
1A8E
100
AcDbEntity
  8
表題欄
 62
     0
100
AcDbBlockReference
  2
*U34
 10
12.976497308098
 20
29.375
 30
0.0
  0
INSERT
  5
1A9D
330
1A8E
100
AcDbEntity
  8
表題欄
 62
     0
100
AcDbBlockReference
  2
*U35
 10
12.976497308098
 20
43.125
 30
0.0
  0
INSERT
  5
1A9E
330
1A8E
100
AcDbEntity
  8
表題欄
 62
     0
100
AcDbBlockReference
  2
*U36
 10
12.976497308098
 20
56.875
 30
0.0
  0
LINE
  5
1A9F
330
1A8E
100
AcDbEntity
  8
表題欄
  6
ByBlock
 62
     0
370
    -2
100
AcDbLine
 10
0.0
 20
0.0
 30
0.0
 11
450.0
 21
0.0
 31
0.0
  0
LINE
  5
1AA0
330
1A8E
100
AcDbEntity
  8
表題欄
  6
ByBlock
 62
     0
370
    -2
100
AcDbLine
 10
0.0
 20
0.0
 30
0.0
 11
0.0
 21
68.75
 31
0.0
  0
LINE
  5
1AA1
330
1A8E
100
AcDbEntity
  8
表題欄
  6
ByBlock
 62
     0
370
    -2
100
AcDbLine
 10
37.5
 20
0.0
 30
0.0
 11
37.5
 21
68.75
 31
0.0
  0
LINE
  5
1AA2
330
1A8E
100
AcDbEntity
  8
表題欄
  6
ByBlock
 62
     0
370
    -2
100
AcDbLine
 10
87.5
 20
0.0
 30
0.0
 11
87.5
 21
68.75
 31
0.0
  0
LINE
  5
1AA3
330
1A8E
100
AcDbEntity
  8
表題欄
  6
ByBlock
 62
     0
370
    -2
100
AcDbLine
 10
125.0
 20
0.0
 30
0.0
 11
125.0
 21
68.75
 31
0.0
  0
LINE
  5
1AA4
330
1A8E
100
AcDbEntity
  8
表題欄
  6
ByBlock
 62
     0
370
    -2
100
AcDbLine
 10
450.0
 20
0.0
 30
0.0
 11
450.0
 21
68.75
 31
0.0
  0
LINE
  5
1AA5
330
1A8E
100
AcDbEntity
  8
表題欄
  6
ByBlock
 62
     0
370
    -2
100
AcDbLine
 10
0.0
 20
13.75
 30
0.0
 11
450.0
 21
13.75
 31
0.0
  0
LINE
  5
1AA6
330
1A8E
100
AcDbEntity
  8
表題欄
  6
ByBlock
 62
     0
370
    -2
100
AcDbLine
 10
0.0
 20
27.5
 30
0.0
 11
450.0
 21
27.5
 31
0.0
  0
LINE
  5
1AA7
330
1A8E
100
AcDbEntity
  8
表題欄
  6
ByBlock
 62
     0
370
    -2
100
AcDbLine
 10
0.0
 20
41.25
 30
0.0
 11
450.0
 21
41.25
 31
0.0
  0
LINE
  5
1AA8
330
1A8E
100
AcDbEntity
  8
表題欄
  6
ByBlock
 62
     0
370
    -2
100
AcDbLine
 10
0.0
 20
55.0
 30
0.0
 11
450.0
 21
55.0
 31
0.0
  0
LINE
  5
1AA9
330
1A8E
100
AcDbEntity
  8
表題欄
  6
ByBlock
 62
     0
370
    -2
100
AcDbLine
 10
0.0
 20
68.75
 30
0.0
 11
450.0
 21
68.75
 31
0.0
  0
ENDBLK
  5
1AAB
330
1A8E
100
AcDbEntity
  8
0
100
AcDbBlockEnd
  0
BLOCK
  5
1AAC
330
1A8F
100
AcDbEntity
  8
0
100
AcDbBlockBegin
  2
*U17
 70
     1
 10
0.0
 20
0.0
 30
0.0
  3
*U17
  1

  0
INSERT
  5
1A90
330
1A8F
100
AcDbEntity
  8
0
100
AcDbBlockReference
  2
囲い文字1
 10
4.163741498082
 20
44.833324013919
 30
0.0
 41
3.446987668374
 42
3.446987668374
 43
3.446987668374
  0
ENDBLK
  5
1AAD
330
1A8F
100
AcDbEntity
  8
0
100
AcDbBlockEnd
  0
BLOCK
  5
1AAE
330
1A91
100
AcDbEntity
  8
0
100
AcDbBlockBegin
  2
*U18
 70
     1
 10
0.0
 20
0.0
 30
0.0
  3
*U18
  1

  0
INSERT
  5
1A92
330
1A91
100
AcDbEntity
  8
0
100
AcDbBlockReference
  2
囲い文字2
 10
29.020280082295
 20
-53.885965169321
 30
0.0
 41
3.446987668374
 42
3.446987668374
 43
3.446987668374
  0
ENDBLK
  5
1AAF
330
1A91
100
AcDbEntity
  8
0
100
AcDbBlockEnd
  0
BLOCK
  5
1AB0
330
1A93
100
AcDbEntity
  8
0
100
AcDbBlockBegin
  2
*U19
 70
     1
 10
0.0
 20
0.0
 30
0.0
  3
*U19
  1

  0
INSERT
  5
1A94
330
1A93
100
AcDbEntity
  8
0
100
AcDbBlockReference
  2
囲い文字3
 10
14.463195287959
 20
-24.903733959604
 30
0.0
 41
3.446987668374
 42
3.446987668374
 43
3.446987668374
  0
ENDBLK
  5
1AB1
330
1A93
100
AcDbEntity
  8
0
100
AcDbBlockEnd
  0
BLOCK
  5
1AB2
330
1A95
100
AcDbEntity
  8
0
100
AcDbBlockBegin
  2
*U20
 70
     1
 10
0.0
 20
0.0
 30
0.0
  3
*U20
  1

  0
INSERT
  5
1A96
330
1A95
100
AcDbEntity
  8
0
100
AcDbBlockReference
  2
囲い文字4
 10
15.531435594298
 20
-18.313096846695
 30
0.0
 41
3.446987668374
 42
3.446987668374
 43
3.446987668374
  0
ENDBLK
  5
1AB3
330
1A95
100
AcDbEntity
  8
0
100
AcDbBlockEnd
  0
BLOCK
  5
1AC4
330
1AB4
100
AcDbEntity
  8
0
100
AcDbBlockBegin
  2
*U21
 70
     1
 10
0.0
 20
0.0
 30
0.0
  3
*U21
  1

  0
INSERT
  5
1AB5
330
1AB4
100
AcDbEntity
  8
0
100
AcDbBlockReference
  2
囲い文字1
 10
4.163741498082
 20
44.833324013919
 30
0.0
 41
3.446987668374
 42
3.446987668374
 43
3.446987668374
  0
ENDBLK
  5
1AC5
330
1AB4
100
AcDbEntity
  8
0
100
AcDbBlockEnd
  0
BLOCK
  5
1AC6
330
1AB6
100
AcDbEntity
  8
0
100
AcDbBlockBegin
  2
*U22
 70
     1
 10
0.0
 20
0.0
 30
0.0
  3
*U22
  1

  0
INSERT
  5
1AB7
330
1AB6
100
AcDbEntity
  8
0
100
AcDbBlockReference
  2
囲い文字2
 10
29.020280082295
 20
-53.885965169321
 30
0.0
 41
3.446987668374
 42
3.446987668374
 43
3.446987668374
  0
ENDBLK
  5
1AC7
330
1AB6
100
AcDbEntity
  8
0
100
AcDbBlockEnd
  0
BLOCK
  5
1AC8
330
1AB8
100
AcDbEntity
  8
0
100
AcDbBlockBegin
  2
*U23
 70
     1
 10
0.0
 20
0.0
 30
0.0
  3
*U23
  1

  0
INSERT
  5
1AB9
330
1AB8
100
AcDbEntity
  8
0
100
AcDbBlockReference
  2
囲い文字3
 10
14.463195287959
 20
-24.903733959604
 30
0.0
 41
3.446987668374
 42
3.446987668374
 43
3.446987668374
  0
ENDBLK
  5
1AC9
330
1AB8
100
AcDbEntity
  8
0
100
AcDbBlockEnd
  0
BLOCK
  5
1ACA
330
1ABA
100
AcDbEntity
  8
0
100
AcDbBlockBegin
  2
*U24
 70
     1
 10
0.0
 20
0.0
 30
0.0
  3
*U24
  1

  0
INSERT
  5
1ABB
330
1ABA
100
AcDbEntity
  8
0
100
AcDbBlockReference
  2
囲い文字4
 10
15.531435594298
 20
-18.313096846695
 30
0.0
 41
3.446987668374
 42
3.446987668374
 43
3.446987668374
  0
ENDBLK
  5
1ACB
330
1ABA
100
AcDbEntity
  8
0
100
AcDbBlockEnd
  0
BLOCK
  5
1ACC
330
1ABC
100
AcDbEntity
  8
0
100
AcDbBlockBegin
  2
*U25
 70
     1
 10
0.0
 20
0.0
 30
0.0
  3
*U25
  1

  0
INSERT
  5
1ABD
330
1ABC
100
AcDbEntity
  8
0
100
AcDbBlockReference
  2
囲い文字1
 10
4.163741498082
 20
44.833324013919
 30
0.0
 41
3.446987668374
 42
3.446987668374
 43
3.446987668374
  0
ENDBLK
  5
1ACD
330
1ABC
100
AcDbEntity
  8
0
100
AcDbBlockEnd
  0
BLOCK
  5
1ACE
330
1ABE
100
AcDbEntity
  8
0
100
AcDbBlockBegin
  2
*U26
 70
     1
 10
0.0
 20
0.0
 30
0.0
  3
*U26
  1

  0
INSERT
  5
1ABF
330
1ABE
100
AcDbEntity
  8
0
100
AcDbBlockReference
  2
囲い文字2
 10
29.020280082295
 20
-53.885965169321
 30
0.0
 41
3.446987668374
 42
3.446987668374
 43
3.446987668374
  0
ENDBLK
  5
1ACF
330
1ABE
100
AcDbEntity
  8
0
100
AcDbBlockEnd
  0
BLOCK
  5
1AD0
330
1AC0
100
AcDbEntity
  8
0
100
AcDbBlockBegin
  2
*U27
 70
     1
 10
0.0
 20
0.0
 30
0.0
  3
*U27
  1

  0
INSERT
  5
1AC1
330
1AC0
100
AcDbEntity
  8
0
100
AcDbBlockReference
  2
囲い文字3
 10
14.463195287959
 20
-24.903733959604
 30
0.0
 41
3.446987668374
 42
3.446987668374
 43
3.446987668374
  0
ENDBLK
  5
1AD1
330
1AC0
100
AcDbEntity
  8
0
100
AcDbBlockEnd
  0
BLOCK
  5
1AD2
330
1AC2
100
AcDbEntity
  8
0
100
AcDbBlockBegin
  2
*U28
 70
     1
 10
0.0
 20
0.0
 30
0.0
  3
*U28
  1

  0
INSERT
  5
1AC3
330
1AC2
100
AcDbEntity
  8
0
100
AcDbBlockReference
  2
囲い文字4
 10
15.531435594298
 20
-18.313096846695
 30
0.0
 41
3.446987668374
 42
3.446987668374
 43
3.446987668374
  0
ENDBLK
  5
1AD3
330
1AC2
100
AcDbEntity
  8
0
100
AcDbBlockEnd
  0
BLOCK
  5
1ADC
330
1AD4
100
AcDbEntity
  8
0
100
AcDbBlockBegin
  2
*U29
 70
     1
 10
0.0
 20
0.0
 30
0.0
  3
*U29
  1

  0
INSERT
  5
1AD5
330
1AD4
100
AcDbEntity
  8
0
100
AcDbBlockReference
  2
囲い文字1
 10
4.163741498082
 20
44.833324013919
 30
0.0
 41
3.446987668374
 42
3.446987668374
 43
3.446987668374
  0
ENDBLK
  5
1ADD
330
1AD4
100
AcDbEntity
  8
0
100
AcDbBlockEnd
  0
BLOCK
  5
1ADE
330
1AD6
100
AcDbEntity
  8
0
100
AcDbBlockBegin
  2
*U30
 70
     1
 10
0.0
 20
0.0
 30
0.0
  3
*U30
  1

  0
INSERT
  5
1AD7
330
1AD6
100
AcDbEntity
  8
0
100
AcDbBlockReference
  2
囲い文字2
 10
29.020280082295
 20
-53.885965169321
 30
0.0
 41
3.446987668374
 42
3.446987668374
 43
3.446987668374
  0
ENDBLK
  5
1ADF
330
1AD6
100
AcDbEntity
  8
0
100
AcDbBlockEnd
  0
BLOCK
  5
1AE0
330
1AD8
100
AcDbEntity
  8
0
100
AcDbBlockBegin
  2
*U31
 70
     1
 10
0.0
 20
0.0
 30
0.0
  3
*U31
  1

  0
INSERT
  5
1AD9
330
1AD8
100
AcDbEntity
  8
0
100
AcDbBlockReference
  2
囲い文字3
 10
14.463195287959
 20
-24.903733959604
 30
0.0
 41
3.446987668374
 42
3.446987668374
 43
3.446987668374
  0
ENDBLK
  5
1AE1
330
1AD8
100
AcDbEntity
  8
0
100
AcDbBlockEnd
  0
BLOCK
  5
1AE2
330
1ADA
100
AcDbEntity
  8
0
100
AcDbBlockBegin
  2
*U32
 70
     1
 10
0.0
 20
0.0
 30
0.0
  3
*U32
  1

  0
INSERT
  5
1ADB
330
1ADA
100
AcDbEntity
  8
0
100
AcDbBlockReference
  2
囲い文字4
 10
15.531435594298
 20
-18.313096846695
 30
0.0
 41
3.446987668374
 42
3.446987668374
 43
3.446987668374
  0
ENDBLK
  5
1AE3
330
1ADA
100
AcDbEntity
  8
0
100
AcDbBlockEnd
  0
BLOCK
  5
1AE6
330
1AE4
100
AcDbEntity
  8
0
100
AcDbBlockBegin
  2
*U33
 70
     1
 10
0.0
 20
0.0
 30
0.0
  3
*U33
  1

  0
INSERT
  5
1AE5
330
1AE4
100
AcDbEntity
  8
0
100
AcDbBlockReference
  2
囲い文字1
 10
4.163741498082
 20
44.833324013919
 30
0.0
 41
3.446987668374
 42
3.446987668374
 43
3.446987668374
  0
ENDBLK
  5
1AE7
330
1AE4
100
AcDbEntity
  8
0
100
AcDbBlockEnd
  0
BLOCK
  5
1AEA
330
1AE8
100
AcDbEntity
  8
0
100
AcDbBlockBegin
  2
*U34
 70
     1
 10
0.0
 20
0.0
 30
0.0
  3
*U34
  1

  0
INSERT
  5
1AE9
330
1AE8
100
AcDbEntity
  8
0
100
AcDbBlockReference
  2
囲い文字2
 10
29.020280082295
 20
-53.885965169321
 30
0.0
 41
3.446987668374
 42
3.446987668374
 43
3.446987668374
  0
ENDBLK
  5
1AEB
330
1AE8
100
AcDbEntity
  8
0
100
AcDbBlockEnd
  0
BLOCK
  5
1AEE
330
1AEC
100
AcDbEntity
  8
0
100
AcDbBlockBegin
  2
*U35
 70
     1
 10
0.0
 20
0.0
 30
0.0
  3
*U35
  1

  0
INSERT
  5
1AED
330
1AEC
100
AcDbEntity
  8
0
100
AcDbBlockReference
  2
囲い文字3
 10
14.463195287959
 20
-24.903733959604
 30
0.0
 41
3.446987668374
 42
3.446987668374
 43
3.446987668374
  0
ENDBLK
  5
1AEF
330
1AEC
100
AcDbEntity
  8
0
100
AcDbBlockEnd
  0
BLOCK
  5
1AF2
330
1AF0
100
AcDbEntity
  8
0
100
AcDbBlockBegin
  2
*U36
 70
     1
 10
0.0
 20
0.0
 30
0.0
  3
*U36
  1

  0
INSERT
  5
1AF1
330
1AF0
100
AcDbEntity
  8
0
100
AcDbBlockReference
  2
囲い文字4
 10
15.531435594298
 20
-18.313096846695
 30
0.0
 41
3.446987668374
 42
3.446987668374
 43
3.446987668374
  0
ENDBLK
  5
1AF3
330
1AF0
100
AcDbEntity
  8
0
100
AcDbBlockEnd
  0
ENDSEC
  0
SECTION
  2
ENTITIES
  0
LWPOLYLINE
  5
18FC
330
A
100
AcDbEntity
  8
輪郭線
100
AcDbPolyline
 90
        4
 70
     1
 43
0.0
 10
1640.0
 20
1148.0
 10
40.0
 20
1148.0
 10
40.0
 20
40.0
 10
1640.0
 20
40.0
  0
LWPOLYLINE
  5
18FD
330
A
100
AcDbEntity
  8
図面枠
100
AcDbPolyline
 90
        4
 70
     1
 43
0.0
 10
1680.0
 20
0.0
 10
1680.0
 20
1188.0
 10
0.0
 20
1188.0
 10
0.0
 20
0.0
  0
TEXT
  5
18FE
330
A
100
AcDbEntity
  8
文字
100
AcDbText
 10
1381.016085259787
 20
201.201143699771
 30
0.0
 40
12.0
  1
＊防水部材の厚みはフリースケール
  7
ＭＳ ゴシック
 72
     1
 11
1505.86290281637
 21
207.201143699771
 31
0.0
100
AcDbText
 73
     2
  0
ACAD_TABLE
  5
18FF
102
{ACAD_XDICTIONARY
360
1B29
102
}
330
A
100
AcDbEntity
  8
表題欄
160
               344
310
5801000002000000CC000000260000000000000000FC8C400000000000004440000000000000000000000000000000000000000000000000000000000000F03F000000000000F03F0000000000000000000000000000000041006300440062005400610062006C006500000009000000000000000000000000000000000000
310
000000F03F0000000000000000000000000000F03F00000000000000000000000000000000000000000000000000000000000000000000000000000000740078007400000042004900470046004F004E00540000008400000006000000050000000000000000FC8C4000000000000044400000000000000000000000000086
310
95400000000000004440000000000000000000000000008695400000000000305B4000000000000000000000000000FC8C400000000000305B4000000000000000000000000000FC8C4000000000000044400000000000000000
100
AcDbBlockReference
  2
*T16
 10
927.5
 20
40.0
 30
0.0
100
AcDbTable
342
1661
343
1A8E
 11
1.0
 21
0.0
 31
0.0
 90
        6
 91
        5
 92
        4
 93
       24
 94
        0
 95
        0
 96
        0
 40
1.875
 41
1.875
141
13.75
141
13.75
141
13.75
141
13.75
141
13.75
142
37.5
142
50.0
142
37.5
142
325.0
171
     1
172
     0
173
     0
174
     0
175
     1
176
     1
 91
       32
178
     0
145
0.0
140
7.5
 92
        0
301
CELL_VALUE
 93
        4
 90
        4
  1
符号
 94
        0
300

302
符号
304
ACVALUE_END
171
     1
172
     0
173
     0
174
     0
175
     1
176
     1
 91
       32
178
     0
145
0.0
140
7.5
 92
        0
301
CELL_VALUE
 93
        4
 90
        4
  1
日付
 94
        0
300

302
日付
304
ACVALUE_END
171
     1
172
     0
173
     0
174
     0
175
     1
176
     1
 91
       32
178
     0
145
0.0
140
7.5
 92
        0
301
CELL_VALUE
 93
        4
 90
        4
  1
訂正者
 94
        0
300

302
訂正者
304
ACVALUE_END
171
     1
172
     0
173
     0
174
     0
175
     1
176
     1
 91
       32
178
     0
145
0.0
140
7.5
 92
        0
301
CELL_VALUE
 93
        4
 90
        4
  1
訂正概要
 94
        0
300

302
訂正概要
304
ACVALUE_END
171
     1
172
     0
173
     0
174
     0
175
     1
176
     1
 91
       32
178
     0
145
0.0
140
7.5
 92
        0
301
CELL_VALUE
 93
        4
 90
        4
  1

 94
        0
300

302

304
ACVALUE_END
171
     1
172
     0
173
     0
174
     0
175
     1
176
     1
 91
       32
178
     0
145
0.0
140
7.5
 92
        0
301
CELL_VALUE
 93
        4
 90
        4
  1

 94
        0
300

302

304
ACVALUE_END
171
     1
172
     0
173
     0
174
     0
175
     1
176
     1
 91
       32
178
     0
145
0.0
140
7.5
 92
        0
301
CELL_VALUE
 93
        4
 90
        4
  1

 94
        0
300

302

304
ACVALUE_END
171
     1
172
     0
173
     0
174
     0
175
     1
176
     1
 91
       33
178
     0
145
0.0
170
     4
140
7.5
 92
        0
301
CELL_VALUE
 93
        4
 90
        4
  1

 94
        0
300

302

304
ACVALUE_END
171
     1
172
     0
173
     0
174
     0
175
     1
176
     1
 91
       33
178
     0
145
0.0
170
     5
140
7.5
 92
        0
301
CELL_VALUE
 93
        4
 90
        4
  1

 94
        0
300

302

304
ACVALUE_END
171
     1
172
     0
173
     0
174
     0
175
     1
176
     1
 91
       33
178
     0
145
0.0
170
     5
140
7.5
 92
        0
301
CELL_VALUE
 93
        4
 90
        4
  1

 94
        0
300

302

304
ACVALUE_END
171
     1
172
     0
173
     0
174
     0
175
     1
176
     1
 91
       33
178
     0
145
0.0
170
     5
140
7.5
 92
        0
301
CELL_VALUE
 93
        4
 90
        4
  1

 94
        0
300

302

304
ACVALUE_END
171
     1
172
     0
173
     0
174
     0
175
     1
176
     1
 91
       33
178
     0
145
0.0
170
     4
140
7.5
 92
        0
301
CELL_VALUE
 93
        4
 90
        4
  1

 94
        0
300

302

304
ACVALUE_END
171
     1
172
     0
173
     0
174
     0
175
     1
176
     1
 91
       33
178
     0
145
0.0
170
     5
140
7.5
 92
        0
301
CELL_VALUE
 93
        4
 90
        4
  1

 94
        0
300

302

304
ACVALUE_END
171
     1
172
     0
173
     0
174
     0
175
     1
176
     1
 91
       33
178
     0
145
0.0
170
     5
140
7.5
 92
        0
301
CELL_VALUE
 93
        4
 90
        4
  1

 94
        0
300

302

304
ACVALUE_END
171
     1
172
     0
173
     0
174
     0
175
     1
176
     1
 91
       33
178
     0
145
0.0
170
     5
140
7.5
 92
        0
301
CELL_VALUE
 93
        4
 90
        4
  1

 94
        0
300

302

304
ACVALUE_END
171
     1
172
     0
173
     0
174
     0
175
     1
176
     1
 91
       33
178
     0
145
0.0
170
     4
140
7.5
 92
        0
301
CELL_VALUE
 93
        4
 90
        4
  1

 94
        0
300

302

304
ACVALUE_END
171
     1
172
     0
173
     0
174
     0
175
     1
176
     1
 91
       33
178
     0
145
0.0
170
     5
140
7.5
 92
        0
301
CELL_VALUE
 93
        4
 90
        4
  1

 94
        0
300

302

304
ACVALUE_END
171
     1
172
     0
173
     0
174
     0
175
     1
176
     1
 91
       33
178
     0
145
0.0
170
     5
140
7.5
 92
        0
301
CELL_VALUE
 93
        4
 90
        4
  1

 94
        0
300

302

304
ACVALUE_END
171
     1
172
     0
173
     0
174
     0
175
     1
176
     1
 91
       33
178
     0
145
0.0
170
     5
140
7.5
 92
        0
301
CELL_VALUE
 93
        4
 90
        4
  1

 94
        0
300

302

304
ACVALUE_END
171
     1
172
     0
173
     0
174
     0
175
     1
176
     1
 91
       33
178
     0
145
0.0
170
     4
140
7.5
 92
        0
301
CELL_VALUE
 93
        4
 90
        4
  1

 94
        0
300

302

304
ACVALUE_END
  0
INSERT
  5
1900
330
A
100
AcDbEntity
  8
表題欄
100
AcDbBlockReference
 66
     1
  2
表題欄(定義)
 10
1421.384392108928
 20
240.349701250074
 30
0.0
 41
4.0
 42
4.0
 43
4.0
  0
ATTRIB
  5
1901
102
{ACAD_XDICTIONARY
360
1902
102
}
330
1900
100
AcDbEntity
  8
表題欄
100
AcDbText
 10
1518.100000000006
 20
75.999909272054
 30
0.0
 40
6.0
  1

  7
ＭＳ ゴシック
100
AcDbAttribute
  2
REMARKS
 70
     0
280
     0
1001
AcadAnnotative
1000
AnnotativeData
1002
{
1070
     1
1070
     0
1002
}
  0
ATTRIB
  5
1905
102
{ACAD_XDICTIONARY
360
1906
102
}
330
1900
100
AcDbEntity
  8
表題欄
100
AcDbText
 10
1456.505610854077
 20
75.999909272054
 30
0.0
 40
6.0
  1
A3-1:4
  7
ＭＳ ゴシック
 72
     1
 11
1468.210000000006
 21
78.999909272054
 31
0.0
100
AcDbAttribute
  2
SCALE
 70
     0
 74
     2
280
     0
1001
AcadAnnotative
1000
AnnotativeData
1002
{
1070
     1
1070
     0
1002
}
  0
ATTRIB
  5
1909
102
{ACAD_XDICTIONARY
360
190A
102
}
330
1900
100
AcDbEntity
  8
表題欄
100
AcDbText
 10
1454.5
 20
108.999909272054
 30
0.0
 40
6.0
  1
HDCLT-Nk03
  7
ＭＳ ゴシック
100
AcDbAttribute
  2
DRAWING　NO.
 70
     0
280
     0
1001
AcadAnnotative
1000
AnnotativeData
1002
{
1070
     1
1070
     0
1002
}
  0
ATTRIB
  5
190D
102
{ACAD_XDICTIONARY
360
190E
102
}
330
1900
100
AcDbEntity
  8
表題欄
100
AcDbText
 10
1454.5
 20
138.999909272054
 30
0.0
 40
6.0
  1
軒先納まり(3)
  7
ＭＳ ゴシック
100
AcDbAttribute
  2
POSITION
 70
     0
280
     0
1001
AcadAnnotative
1000
AnnotativeData
1002
{
1070
     1
1070
     0
1002
}
  0
ATTRIB
  5
1911
102
{ACAD_XDICTIONARY
360
1912
102
}
330
1900
100
AcDbEntity
  8
表題欄
100
AcDbText
 10
1454.5
 20
168.999909272054
 30
0.0
 40
6.0
  1
木造建築物 非断熱機械的固定 HD-CLT工法
  7
ＭＳ ゴシック
100
AcDbAttribute
  2
NAME
 70
     0
280
     0
1001
AcadAnnotative
1000
AnnotativeData
1002
{
1070
     1
1070
     0
1002
}
  0
ATTRIB
  5
1915
102
{ACAD_XDICTIONARY
360
1916
102
}
330
1900
100
AcDbEntity
  8
表題欄
100
AcDbText
 10
1398.996342378392
 20
45.999909272054
 30
0.0
 40
6.0
  1
小 山
  7
ＭＳ ゴシック
 72
     1
 11
1408.75
 21
48.999909272054
 31
0.0
100
AcDbAttribute
  2
DRAWING
 70
     0
 74
     2
280
     0
1001
AcadAnnotative
1000
AnnotativeData
1002
{
1070
     1
1070
     0
1002
}
  0
ATTRIB
  5
1919
330
1900
100
AcDbEntity
  8
表題欄
100
AcDbText
 10
1408.75
 20
75.999909272054
 30
0.0
 40
6.0
  1

  7
ＭＳ ゴシック
 72
     1
 11
1408.75
 21
78.999909272054
 31
0.0
100
AcDbAttribute
  2
DESIGNED
 70
     0
 74
     2
280
     0
  0
ATTRIB
  5
191A
102
{ACAD_XDICTIONARY
360
191B
102
}
330
1900
100
AcDbEntity
  8
表題欄
100
AcDbText
 10
1408.75
 20
105.999909272054
 30
0.0
 40
6.0
  1

  7
ＭＳ ゴシック
 72
     1
 11
1408.75
 21
108.999909272054
 31
0.0
100
AcDbAttribute
  2
CHECKED
 70
     0
 74
     2
280
     0
1001
AcadAnnotative
1000
AnnotativeData
1002
{
1070
     1
1070
     0
1002
}
  0
ATTRIB
  5
191E
102
{ACAD_XDICTIONARY
360
191F
102
}
330
1900
100
AcDbEntity
  8
表題欄
100
AcDbText
 10
1393.144147805427
 20
135.999909272054
 30
0.0
 40
6.0
  1
20220204
  7
ＭＳ ゴシック
 72
     1
 11
1408.75
 21
138.999909272054
 31
0.0
100
AcDbAttribute
  2
ISSUE
 70
     0
 74
     2
280
     0
1001
AcadAnnotative
1000
AnnotativeData
1002
{
1070
     1
1070
     0
1002
}
  0
ATTRIB
  5
1922
102
{ACAD_XDICTIONARY
360
1923
102
}
330
1900
100
AcDbEntity
  8
表題欄
100
AcDbText
 10
1393.144147805427
 20
165.999909272054
 30
0.0
 40
6.0
  1
20220201
  7
ＭＳ ゴシック
 72
     1
 11
1408.75
 21
168.999909272054
 31
0.0
100
AcDbAttribute
  2
DATE
 70
     0
 74
     2
280
     0
1001
AcadAnnotative
1000
AnnotativeData
1002
{
1070
     1
1070
     0
1002
}
  0
SEQEND
  5
1926
330
1900
100
AcDbEntity
  8
表題欄
  0
TEXT
  5
1927
330
A
100
AcDbEntity
  8
文字
100
AcDbText
 10
617.304039486786
 20
369.108798849325
 30
0.0
 40
20.0
  1
S=1.5:1
  7
基本スタイル
100
AcDbText
1001
AcadAnnotative
1000
AnnotativeData
1002
{
1070
     1
1070
     0
1002
}
  0
HATCH
  5
1928
330
A
100
AcDbEntity
  8
野地板
100
AcDbHatch
 10
0.0
 20
0.0
 30
0.0
210
0.0
220
0.0
230
1.0
  2
WOOD1
 70
     0
 71
     0
 91
        1
 92
        3
 72
     0
 73
     1
 93
        4
 10
616.6352034586016
 20
690.0000000048021
 10
616.6352034586016
 20
642.0000000024011
 10
1456.635203500598
 20
642.0000000024011
 10
1456.635203500598
 20
690.0000000048021
 97
        0
 75
     0
 76
     1
 52
337.5
 41
53.333333336
 77
     0
 78
     3
 53
14.36989764584397
 43
55918.40352495608
 44
18998.17434290407
 45
-150.9122330641447
 46
-29.8542407663909
 79
     2
 49
21.33333333439996
 49
-192.0000000095996
 53
355.934948822922
 43
55939.06941691291
 44
19003.46887034144
 45
-39.41886005578584
 46
16.32782644839358
 79
     2
 49
26.9847693681194
 49
-107.9390774724776
 53
4.065051177077964
 43
55965.98629823606
 44
19001.55594648356
 45
-39.41886005578583
 46
16.32782644839358
 79
     2
 49
47.70278352238058
 49
-47.70278352238059
 98
        0
1001
ACAD
1010
0.0
1020
0.0
1030
0.0
1001
HATCHBACKGROUNDCOLOR
1071
-939524096
1000

1000

  0
LINE
  5
1929
330
A
100
AcDbEntity
  8
野地板
100
AcDbLine
 10
616.635203458602
 20
690.000000004802
 30
0.0
 11
1456.635203500598
 21
690.000000004802
 31
0.0
  0
LINE
  5
192A
330
A
100
AcDbEntity
  8
野地板
100
AcDbLine
 10
616.635203458602
 20
642.000000002401
 30
0.0
 11
1456.635203500598
 21
642.000000002401
 31
0.0
  0
HATCH
  5
192B
330
A
100
AcDbEntity
  8
野地板
100
AcDbHatch
 10
0.0
 20
0.0
 30
0.0
210
0.0
220
0.0
230
1.0
  2
WOOD4
 70
     0
 71
     0
 91
        1
 92
        3
 72
     0
 73
     1
 93
        5
 10
856.6352034706069
 20
594.0
 10
616.6352034586016
 20
594.0
 10
616.6352034586016
 20
545.9999999976026
 10
1456.635203500598
 20
545.9999999976026
 10
1456.635203500598
 20
594.0
 97
        0
 75
     0
 76
     1
 52
0.0
 41
213.333333344
 77
     0
 78
    92
 53
349.6952
 43
56068.7952062312
 44
19371.38666760553
 45
2816.000451098748
 46
-469.3309282750273
 79
     2
 49
52.47287466929031
 49
-5194.832896259742
 53
0.0
 43
56120.42187290045
 44
19362.00000093841
 45
469.3333333568
 46
469.3333333568
 79
     2
 49
51.626666669248
 49
-417.7066666875519
 53
18.4349
 43
56172.0485395697
 44
19362.00000093841
 45
938.666870682563
 46
469.3325839359909
 79
     2
 49
44.52471466889277
 49
-1439.637290738644
 53
172.875
 43
56214.28853957182
 44
19376.08000093911
 45
3285.333511771653
 46
-469.3325269923677
 79
     2
 49
37.83906133522529
 49
-3746.047360187303
 53
174.8056
 43
56176.74187290328
 44
19380.77333427267
 45
4693.333648042402
 46
-469.3310921490755
 79
     2
 49
51.83974400259197
 49
-5132.116352256605
 53
194.0362
 43
56125.11520623403
 44
19385.46666760624
 45
-1408.000256321584
 46
-469.3324216116776
 79
     2
 49
58.05324800290254
 49
-1877.057365427183
 53
9.4623
 43
56106.34187289975
 44
19371.38666760553
 45
2346.667029904998
 46
469.3324600224763
 79
     2
 49
28.54860800142743
 49
-2826.294826807981
 53
353.6598000000001
 43
56134.50187290116
 44
19376.08000093911
 45
-3754.666386477681
 46
469.3340744152131
 79
     2
 49
42.50001066879167
 49
-4207.494016210375
 53
185.7106
 43
56176.74187290328
 44
19371.38666760553
 45
-4223.999729638586
 46
-469.3339503735131
 79
     2
 49
47.16753066902505
 49
-4669.574272233479
 53
168.6901
 43
56129.8085395676
 44
19366.69333427197
 45
1877.33368647426
 46
-469.3322220513136
 79
     2
 49
23.93130666786323
 49
-2369.208277451794
 53
354.8056
 43
56026.5552062291
 44
19366.69333427197
 45
-4693.333648042402
 46
469.3310921490739
 79
     2
 49
51.83974400259186
 49
-5132.116352256594
 53
348.6901
 43
56078.18187289835
 44
19362.00000093841
 45
-1877.33368647426
 46
469.3322220513147
 79
     2
 49
47.86261333572647
 49
-2345.276970783931
 53
0.0
 43
56125.11520623403
 44
19352.61333427127
 45
469.3333333568
 46
469.3333333568
 79
     2
 49
56.320000002816
 49
-413.013333353984
 53
20.55600000000001
 43
56181.43520623684
 44
19352.61333427127
 45
2346.667532489244
 46
938.6647877007983
 79
     2
 49
40.09984000200498
 49
-3969.886037531826
 53
3.814100000000011
 43
56218.98187290539
 44
19366.69333427197
 45
6570.666357914
 46
469.3362075417912
 79
     2
 49
70.55628800352781
 49
-6985.07063501592
 53
354.8056
 43
56289.3818729089
 44
19371.38666760553
 45
-4693.333648042402
 46
469.3310921490739
 79
     2
 49
51.83974400259186
 49
-5132.116352256594
 53
0.0
 43
56341.00853957815
 44
19366.69333427197
 45
469.3333333568
 46
469.3333333568
 79
     2
 49
51.626666669248
 49
-417.7066666875519
 53
5.194400000000002
 43
55923.3018728906
 44
19366.69333427197
 45
4693.333648042402
 46
469.3310921490748
 79
     2
 49
51.83974400259186
 49
-5132.116352256594
 53
354.8056
 43
55974.92853955985
 44
19371.38666760553
 45
-4693.333648042402
 46
469.3310921490739
 79
     2
 49
51.83974400259186
 49
-5132.116352256594
 53
0.0
 43
55923.3018728906
 44
19376.08000093911
 45
469.3333333568
 46
469.3333333568
 79
     2
 49
28.160000001408
 49
-441.1733333553919
 53
5.194400000000002
 43
55951.461872892
 44
19376.08000093911
 45
4693.333648042402
 46
469.3310921490748
 79
     2
 49
51.83974400259186
 49
-5132.116352256594
 53
0.0
 43
56003.08853956126
 44
19380.77333427267
 45
469.3333333568
 46
469.3333333568
 79
     2
 49
46.93333333568
 49
-422.40000002112
 53
10.3048
 43
56050.02187289693
 44
19380.77333427267
 45
-2816.000451098749
 46
-469.3309282750258
 79
     2
 49
52.47287466929031
 49
-5194.832896259742
 53
5.194400000000002
 43
56101.64853956619
 44
19390.16000093981
 45
4693.333648042402
 46
469.3310921490748
 79
     2
 49
51.83974400259186
 49
-5132.116352256594
 53
354.8056
 43
56153.27520623543
 44
19394.85333427338
 45
-4693.333648042402
 46
469.3310921490739
 79
     2
 49
51.83974400259186
 49
-5132.116352256594
 53
354.8056
 43
56204.90187290468
 44
19390.16000093981
 45
-4693.333648042402
 46
469.3310921490739
 79
     2
 49
51.83974400259186
 49
-5132.116352256594
 53
351.8699
 43
56256.52853957393
 44
19385.46666760624
 45
-2815.999895226552
 46
469.3330310195644
 79
     2
 49
66.373589336652
 49
-3252.313856162616
 53
0.0
 43
56322.23520624387
 44
19376.08000093911
 45
469.3333333568
 46
469.3333333568
 79
     2
 49
70.40000000352
 49
-398.93333335328
 53
347.4712
 43
56303.4618729096
 44
19094.48000092503
 45
2346.666817162669
 46
-469.3331470525358
 79
     2
 49
43.27018666883017
 49
-4283.769130880854
 53
354.2894
 43
56345.70187291173
 44
19085.09333425788
 45
-4223.999729638586
 46
469.3339503735127
 79
     2
 49
47.16753066902505
 49
-4669.574272233479
 53
8.1301
 43
56303.4618729096
 44
19094.48000092503
 45
2815.999895226553
 46
469.3330310195617
 79
     2
 49
33.18702933499269
 49
-3285.500885497609
 53
9.4623
 43
56336.31520624459
 44
19099.17333425859
 45
2346.667029904998
 46
469.3324600224763
 79
     2
 49
57.09674666952151
 49
-2797.746218806554
 53
0.0
 43
55923.3018728906
 44
19108.56000092573
 45
469.3333333568
 46
469.3333333568
 79
     2
 49
56.320000002816
 49
-413.013333353984
 53
350.5377
 43
55979.62187289342
 44
19108.56000092573
 45
-2346.667029904997
 46
469.3324600224772
 79
     2
 49
28.54860800142737
 49
-2826.294826807974
 53
201.8014
 43
56007.78187289483
 44
19103.86666759216
 45
1408.000128203455
 46
469.3332913517712
 79
     2
 49
25.27453866793039
 49
-2502.162901458441
 53
192.9946
 43
55984.31520622699
 44
19094.48000092503
 45
4224.000360541583
 46
938.6655297903706
 79
     2
 49
62.61704533646419
 49
-6199.070592309954
 53
352.8749999999999
 43
56355.08853957885
 44
19094.48000092503
 45
-3285.333511771653
 46
469.332526992371
 79
     2
 49
37.83906133522529
 49
-3746.047360187303
 53
7.124999999999997
 43
56355.08853957885
 44
19094.48000092503
 45
3285.333511771653
 46
469.3325269923679
 79
     2
 49
37.83906133522529
 49
-3746.047360187303
 53
0.0
 43
55923.3018728906
 44
19099.17333425859
 45
469.3333333568
 46
469.3333333568
 79
     2
 49
37.54666666854399
 49
-431.786666688256
 53
194.0362
 43
55960.84853955915
 44
19099.17333425859
 45
-1408.000256321584
 46
-469.3324216116776
 79
     2
 49
38.70216533526836
 49
-1896.40891742815
 53
356.6335
 43
56026.5552062291
 44
19113.25333425929
 45
-7509.333015486109
 46
469.3384788245111
 79
     2
 49
79.9246506706629
 49
-7912.534315062292
 53
357.7094
 43
56106.34187289975
 44
19108.56000092573
 45
-11264.00006118968
 46
469.3313401571976
 79
     2
 49
117.4272000058714
 49
-11625.2890459146
 53
3.179800000000001
 43
56223.67520623896
 44
19103.86666759216
 45
7978.666902999229
 46
469.3291292219479
 79
     2
 49
84.61047467089719
 49
-8376.416811085488
 53
9.4623
 43
56308.15520624317
 44
19108.56000092573
 45
2346.667029904998
 46
469.3324600224763
 79
     2
 49
85.64535467094892
 49
-2769.19808013846
 53
10.3048
 43
55923.3018728906
 44
19066.32000092362
 45
-2816.000451098749
 46
-469.3309282750258
 79
     2
 49
52.47287466929031
 49
-5194.832896259742
 53
15.9454
 43
55974.92853955985
 44
19075.70666759076
 45
-1877.333392869276
 46
-469.3332813999011
 79
     2
 49
68.33587200341678
 49
-3348.462421500755
 53
0.0
 43
56040.6352062298
 44
19094.48000092503
 45
469.3333333568
 46
469.3333333568
 79
     2
 49
61.01333333638399
 49
-408.320000020416
 53
351.8699
 43
56101.64853956619
 44
19094.48000092503
 45
-2815.999895226552
 46
469.3330310195644
 79
     2
 49
66.373589336652
 49
-3252.313856162616
 53
3.5763
 43
56167.35520623614
 44
19085.09333425788
 45
7040.000307452804
 46
469.3289766911668
 79
     2
 49
75.23976533709533
 49
-7448.74568570577
 53
351.2538000000001
 43
56242.44853957323
 44
19089.78666759146
 45
3285.333022027513
 46
-469.3353031757979
 79
     2
 49
61.73094400308643
 49
-6111.385045638888
 53
345.9638
 43
56303.4618729096
 44
19080.40000092432
 45
-1408.000256321585
 46
469.3324216116775
 79
     2
 49
58.05324800290266
 49
-1877.057365427187
 53
0.0
 43
56359.78187291243
 44
19066.32000092362
 45
469.3333333568
 46
469.3333333568
 79
     2
 49
32.853333334976
 49
-436.4800000218239
 53
174.8056
 43
56026.5552062291
 44
19113.25333425929
 45
4693.333648042402
 46
-469.3310921490755
 79
     2
 49
103.6790186718506
 49
-5080.277077587346
 53
355.2364000000001
 43
55923.3018728906
 44
19141.41333426071
 45
-5162.667111064126
 46
469.3293593524808
 79
     2
 49
113.0304853389848
 49
-5538.49143494359
 53
0.0
 43
56035.94187289623
 44
19132.02666759357
 45
469.3333333568
 46
469.3333333568
 79
     2
 49
107.946666672064
 49
-361.3866666847359
 53
4.0856
 43
56143.8885395683
 44
19132.02666759357
 45
6101.333403576027
 46
469.3315181416917
 79
     2
 49
131.7479680065871
 49
-6455.658880322768
 53
0.0
 43
56275.3018729082
 44
19141.41333426071
 45
469.3333333568
 46
469.3333333568
 79
     2
 49
117.3333333392
 49
-352.0000000176
 53
7.124999999999997
 43
55923.3018728906
 44
19042.85333425578
 45
3285.333511771653
 46
469.3325269923679
 79
     2
 49
113.5167146723425
 49
-3670.369706850186
 53
6.340200000000002
 43
56035.94187289623
 44
19056.93333425648
 45
3754.666386477681
 46
469.3340744152163
 79
     2
 49
85.00002133758333
 49
-4164.994005541582
 53
357.5104
 43
56120.42187290045
 44
19066.32000092362
 45
-10325.33308965802
 46
469.3417181234222
 79
     2
 49
108.0485120054024
 49
-10696.81629920151
 53
353.4802
 43
56228.36853957253
 44
19061.62666759004
 45
-12202.66656912681
 46
1407.999777251456
 79
     2
 49
165.3358080082665
 49
-16368.25907281838
 53
3.0128
 43
55923.3018728906
 44
19347.92000093769
 45
8448.000005912374
 46
469.3352599133817
 79
     2
 49
89.2967680044646
 49
-8840.37909377533
 53
351.8699
 43
56012.4752062284
 44
19352.61333427127
 45
-2815.999895226552
 46
469.3330310195644
 79
     2
 49
99.56061867164469
 49
-3219.127296160956
 53
357.6141000000001
 43
56111.03520623333
 44
19338.53333427056
 45
-10794.66691307813
 46
469.3252470064981
 79
     2
 49
112.73762133897
 49
-11161.03577655802
 53
10.6197
 43
56223.67520623896
 44
19333.84000093699
 45
-5162.665918158926
 46
-938.6704603904893
 79
     2
 49
76.40183467048675
 49
-7563.791019044857
 53
0.0
 43
56298.76853957603
 44
19347.92000093769
 45
469.3333333568
 46
469.3333333568
 79
     2
 49
93.86666667136001
 49
-375.46666668544
 53
356.8202000000001
 43
55923.3018728906
 44
19404.24000094051
 45
-7978.666902999229
 46
469.3291292219467
 79
     2
 49
84.61047467089702
 49
-8376.416811085466
 53
6.009
 43
56007.78187289483
 44
19399.54666760694
 45
-4693.3332166599
 46
-469.3330130282783
 79
     2
 49
89.66613333781663
 49
-8876.934528443846
 53
6.7098
 43
56096.95520623261
 44
19408.93333427408
 45
-4224.000468489146
 46
-469.3304616206657
 79
     2
 49
80.33672533735017
 49
-7953.355520397668
 53
354.2894
 43
56176.74187290328
 44
19418.32000094122
 45
-4223.999729638586
 46
469.3339503735127
 79
     2
 49
94.3350613380501
 49
-4622.406741564454
 53
347.9052
 43
56270.60853957463
 44
19408.93333427408
 45
-4223.999343901991
 46
938.669826963905
 79
     2
 49
67.1982080033599
 49
-6652.632448332632
 53
9.4623
 43
56336.31520624459
 44
19394.85333427338
 45
2346.667029904998
 46
469.3324600224763
 79
     2
 49
57.09674666952151
 49
-2797.746218806554
 53
3.814100000000011
 43
55923.3018728906
 44
19315.06666760272
 45
6570.666357914
 46
469.3362075417912
 79
     2
 49
70.55628800352781
 49
-6985.07063501592
 53
347.1957
 43
55993.70187289413
 44
19319.76000093628
 45
-6101.332323109185
 46
1408.003467351642
 79
     2
 49
105.8862933386274
 49
-10482.75618185745
 53
0.0
 43
56096.95520623261
 44
19296.29333426844
 45
469.3333333568
 46
469.3333333568
 79
     2
 49
117.3333333392
 49
-352.0000000176
 53
5.440299999999999
 43
56214.28853957182
 44
19296.29333426844
 45
-5162.666813454494
 46
-469.3302222593686
 79
     2
 49
99.00586667161673
 49
-9801.591595156724
 53
6.7098
 43
56312.84853957675
 44
19305.68000093558
 45
-4224.000468489146
 46
-469.3304616206657
 79
     2
 49
80.33672533735017
 49
-7953.355520397668
 53
0.0
 43
55923.3018728906
 44
19437.09333427548
 45
469.3333333568
 46
469.3333333568
 79
     2
 49
79.786666670656
 49
-389.546666686144
 53
8.1301
 43
56003.08853956126
 44
19437.09333427548
 45
2815.999895226553
 46
469.3330310195617
 79
     2
 49
132.7476480066374
 49
-3185.940266825963
 53
357.6141000000001
 43
56134.50187290116
 44
19455.86666760976
 45
-10794.66691307813
 46
469.3252470064981
 79
     2
 49
112.73762133897
 49
-11161.03577655802
 53
354.4725
 43
56247.1418729068
 44
19451.17333427619
 45
9856.000807464405
 46
-938.6598049030172
 79
     2
 49
146.1729280073086
 49
-14471.13066739023
 53
6.8428
 43
55923.3018728906
 44
19010.00000092081
 45
-7978.666369263531
 46
-938.670420406285
 79
     2
 49
118.1753173392418
 49
-11699.3362352516
 53
0.0
 43
56040.6352062298
 44
19024.08000092151
 45
469.3333333568
 46
469.3333333568
 79
     2
 49
131.413333339904
 49
-337.920000016896
 53
356.3478
 43
56172.0485395697
 44
19024.08000092151
 45
-14549.33377627406
 46
938.6607054896085
 79
     2
 49
221.0353493443851
 49
-21882.52164376079
 53
0.0
 43
55923.3018728906
 44
19174.26666759568
 45
469.3333333568
 46
469.3333333568
 79
     2
 49
112.640000005632
 49
-356.693333351168
 53
4.7636
 43
56035.94187289623
 44
19174.26666759568
 45
5162.667111064125
 46
469.3293593524846
 79
     2
 49
113.0304853389846
 49
-5538.491434943575
 53
358.1524
 43
56148.58187290186
 44
19183.65333426282
 45
-14080.00021861961
 46
469.3306768229969
 79
     2
 49
145.5688960072784
 49
-14411.3324380539
 53
357.2737
 43
56294.07520624247
 44
19178.96000092924
 45
-9386.66680557688
 46
469.3314643434285
 79
     2
 49
98.67170133826691
 49
-9768.49655515509
 53
354.8056
 43
55923.3018728906
 44
19249.36000093277
 45
-4693.333648042402
 46
469.3310921490739
 79
     2
 49
103.6790186718504
 49
-5080.277077587336
 53
0.0
 43
56026.5552062291
 44
19239.97333426563
 45
469.3333333568
 46
469.3333333568
 79
     2
 49
150.186666674176
 49
-319.146666682624
 53
1.9092
 43
56176.74187290328
 44
19239.97333426563
 45
13610.66621283484
 46
469.3447105028405
 79
     2
 49
140.8783786737106
 49
-13946.94165403068
 53
3.5763
 43
56317.54187291031
 44
19244.66666759921
 45
7040.000307452804
 46
469.3289766911668
 79
     2
 49
75.23976533709533
 49
-7448.74568570577
 98
        0
1001
ACAD
1010
0.0
1020
0.0
1030
0.0
1001
HATCHBACKGROUNDCOLOR
1071
-939524096
1000

1000

  0
LINE
  5
192C
330
A
100
AcDbEntity
  8
野地板
100
AcDbLine
 10
616.635203458602
 20
594.0
 30
0.0
 11
1456.635203500598
 21
594.0
 31
0.0
  0
LINE
  5
192D
330
A
100
AcDbEntity
  8
野地板
100
AcDbLine
 10
616.635203458602
 20
545.999999997603
 30
0.0
 11
1456.635203500598
 21
545.999999997603
 31
0.0
  0
HATCH
  5
192E
330
A
100
AcDbEntity
  8
野地板
100
AcDbHatch
 10
0.0
 20
0.0
 30
0.0
210
0.0
220
0.0
230
1.0
  2
WOOD1
 70
     0
 71
     0
 91
        1
 92
        3
 72
     0
 73
     1
 93
        5
 10
856.6352034706069
 20
497.9999999952015
 10
616.6352034586016
 20
497.9999999952015
 10
616.6352034586016
 20
449.9999999928004
 10
1456.635203500598
 20
449.9999999928004
 10
1456.635203500598
 20
497.9999999952015
 97
        0
 75
     0
 76
     1
 52
158.0
 41
53.333333336
 77
     0
 78
     3
 53
194.869897645844
 43
55928.09683728657
 44
19021.86795425984
 45
150.6459626969056
 46
31.17004496735423
 79
     2
 49
21.3333333344
 49
-192.0000000096
 53
176.434948822922
 43
55907.4779351052
 44
19016.39328678208
 45
39.55984446349425
 46
-15.98321465321142
 79
     2
 49
26.9847693681194
 49
-107.9390774724776
 53
184.565051177078
 43
55880.54538549647
 44
19018.07124668131
 45
39.55984446349425
 46
-15.98321465321141
 79
     2
 49
47.70278352238064
 49
-47.70278352238066
 98
        0
1001
ACAD
1010
0.0
1020
0.0
1030
0.0
1001
HATCHBACKGROUNDCOLOR
1071
-939524096
1000

1000

  0
LINE
  5
192F
330
A
100
AcDbEntity
  8
野地板
100
AcDbLine
 10
616.635203458602
 20
497.999999995202
 30
0.0
 11
1456.635203500598
 21
497.999999995202
 31
0.0
  0
LINE
  5
1930
330
A
100
AcDbEntity
  8
野地板
100
AcDbLine
 10
616.635203458602
 20
449.9999999928
 30
0.0
 11
1456.635203500598
 21
449.9999999928
 31
0.0
  0
LINE
  5
1931
330
A
100
AcDbEntity
  8
野地板
100
AcDbLine
 10
616.635203458602
 20
690.000000004802
 30
0.0
 11
616.635203458602
 21
449.9999999928
 31
0.0
  0
LINE
  5
1932
330
A
100
AcDbEntity
  8
野地板
100
AcDbLine
 10
856.635203470607
 20
642.000000002401
 30
0.0
 11
856.635203470607
 21
594.0
 31
0.0
  0
LINE
  5
1933
330
A
100
AcDbEntity
  8
野地板
100
AcDbLine
 10
856.635203470607
 20
545.999999997603
 30
0.0
 11
856.635203470607
 21
497.999999995202
 31
0.0
  0
LINE
  5
1934
330
A
100
AcDbEntity
  8
野地板
100
AcDbLine
 10
1096.635203482598
 20
642.000000002401
 30
0.0
 11
1096.635203482598
 21
594.0
 31
0.0
  0
LINE
  5
1935
330
A
100
AcDbEntity
  8
野地板
100
AcDbLine
 10
1096.635203482598
 20
545.999999997603
 30
0.0
 11
1096.635203482598
 21
497.999999995202
 31
0.0
  0
LINE
  5
1936
330
A
100
AcDbEntity
  8
野地板
100
AcDbLine
 10
1336.635203494603
 20
642.000000002401
 30
0.0
 11
1336.635203494603
 21
594.0
 31
0.0
  0
LINE
  5
1937
330
A
100
AcDbEntity
  8
野地板
100
AcDbLine
 10
1336.635203494603
 20
545.999999997603
 30
0.0
 11
1336.635203494603
 21
497.999999995202
 31
0.0
  0
LWPOLYLINE
  5
1938
330
A
100
AcDbEntity
  8
ブチルﾃｰﾌﾟ
100
AcDbPolyline
 90
        4
 70
     1
 43
0.0
 10
664.635203461003
 20
701.11111111736
 10
771.301870133
 20
701.11111111736
 10
771.301870133
 20
712.666666664602
 10
664.635203461003
 20
712.666666664602
  0
HATCH
  5
1939
102
{ACAD_XDICTIONARY
360
193A
102
}
330
A
100
AcDbEntity
  8
ブチルﾃｰﾌﾟ
 62
     4
100
AcDbHatch
 10
0.0
 20
0.0
 30
0.0
210
0.0
220
0.0
230
1.0
  2
ANSI31
 70
     0
 71
     0
 91
        1
 92
        7
 72
     0
 73
     1
 93
        4
 10
664.6352034610027
 20
701.1111111173595
 10
771.3018701330002
 20
701.1111111173595
 10
771.3018701330002
 20
712.6666666646015
 10
664.6352034610027
 20
712.6666666646015
 97
        0
 75
     0
 76
     1
 52
0.0
 41
26.666666668
 77
     0
 78
     1
 53
45.0
 43
104865.5476920186
 44
34255.65351030482
 45
-2.35702260407301
 46
2.35702260407301
 79
     0
 47
0.0
 98
        1
 10
704.6463319085451
 20
704.75301649221
1001
ACAD
1010
0.0
1020
0.0
1030
0.0
1001
AcadAnnotative
1000
AnnotativeData
1002
{
1070
     1
1070
     0
1002
}
1001
HATCHBACKGROUNDCOLOR
1071
-939524096
1000

1000

  0
LWPOLYLINE
  5
193D
330
A
100
AcDbEntity
  8
GL鋼板
100
AcDbPolyline
 90
        8
 70
     1
 43
0.0
 10
611.301870125011
 20
444.666666659203
 10
611.301870125011
 20
695.3333333384
 10
771.301870133
 20
695.3333333384
 10
771.301870133
 20
698.444444450561
 10
608.190759012854
 20
698.444444450561
 10
608.190759012854
 20
441.555555547049
 10
771.301870133
 20
441.555555547049
 10
771.301870133
 20
444.666666659206
  0
LINE
  5
193E
330
A
100
AcDbEntity
  8
実線
100
AcDbLine
 10
720.635203463797
 20
715.333333331404
 30
0.0
 11
773.968536799803
 21
715.333333331404
 31
0.0
  0
LINE
  5
193F
330
A
100
AcDbEntity
  8
実線
100
AcDbLine
 10
773.968536799803
 20
715.333333331404
 30
0.0
 11
773.968536799803
 21
692.666666671601
 31
0.0
  0
LINE
  5
1940
330
A
100
AcDbEntity
  8
実線
100
AcDbLine
 10
773.968536799803
 20
692.666666671601
 30
0.0
 11
1456.635203500598
 21
692.666666671601
 31
0.0
  0
LINE
  5
1941
330
A
100
AcDbEntity
  8
実線
100
AcDbLine
 10
720.635203463797
 20
716.933333331479
 30
0.0
 11
775.568536799881
 21
716.933333331479
 31
0.0
  0
LINE
  5
1942
330
A
100
AcDbEntity
  8
実線
100
AcDbLine
 10
775.568536799881
 20
716.933333331479
 30
0.0
 11
775.568536799881
 21
694.266666671683
 31
0.0
  0
LINE
  5
1943
330
A
100
AcDbEntity
  8
実線
100
AcDbLine
 10
775.568536799881
 20
694.266666671683
 30
0.0
 11
1456.635203500598
 21
694.266666671683
 31
0.0
  0
LINE
  5
1944
330
A
100
AcDbEntity
  8
実線
100
AcDbLine
 10
720.635203463797
 20
716.933333331479
 30
0.0
 11
720.635203463797
 21
715.333333331404
 31
0.0
  0
LINE
  5
1945
330
A
100
AcDbEntity
  8
IBｼｰﾄ
100
AcDbLine
 10
606.412981236761
 20
730.711111108165
 30
0.0
 11
791.746314579374
 21
730.711111108165
 31
0.0
  0
LINE
  5
1946
330
A
100
AcDbEntity
  8
IBｼｰﾄ
100
AcDbLine
 10
791.746314579359
 20
730.711111108172
 30
0.0
 11
850.251141843226
 21
696.933333338482
 31
0.0
  0
LINE
  5
1947
330
A
100
AcDbEntity
  8
IBｼｰﾄ
100
AcDbLine
 10
850.251141843226
 20
696.933333338482
 30
0.0
 11
1456.635203500598
 21
696.933333338482
 31
0.0
  0
LINE
  5
1948
330
A
100
AcDbEntity
  8
IBｼｰﾄ
100
AcDbLine
 10
606.412981236761
 20
744.044444442163
 30
0.0
 11
795.31897047862
 21
744.044444442163
 31
0.0
  0
LINE
  5
1949
330
A
100
AcDbEntity
  8
IBｼｰﾄ
100
AcDbLine
 10
795.31897047862
 20
744.044444442174
 30
0.0
 11
853.823797742501
 21
710.266666672484
 31
0.0
  0
LINE
  5
194A
330
A
100
AcDbEntity
  8
IBｼｰﾄ
100
AcDbLine
 10
853.823797742501
 20
710.266666672484
 30
0.0
 11
1456.635203500598
 21
710.266666672484
 31
0.0
  0
HATCH
  5
194B
330
A
100
AcDbEntity
  8
部材(積層鋼板)
 62
     4
100
AcDbHatch
 10
0.0
 20
0.0
 30
0.0
210
0.0
220
0.0
230
1.0
  2
ANSI31
 70
     0
 71
     0
 91
        2
 92
        7
 72
     1
 73
     1
 93
        8
 10
586.8574256784486
 20
674.7111111053746
 42
0.0
 10
586.8574256784486
 20
719.4666666649391
 42
-0.414213562373095
 10
586.9907590117946
 20
719.5999999982778
 42
0.0
 10
738.412981243353
 20
719.5999999982778
 42
0.0
 10
738.412981243353
 20
728.0444444413733
 42
0.0
 10
585.0796479023556
 20
728.0444444413733
 42
0.414213562373095
 10
578.4129812353494
 20
721.3777777743744
 42
0.0
 10
578.4129812353494
 20
674.7111111053746
 42
0.0
 97
        0
 92
        7
 72
     0
 73
     1
 93
        4
 10
791.746314579359
 20
719.5999999982778
 10
791.746314579359
 20
728.0444444413733
 10
738.412981243353
 20
728.0444444413733
 10
738.412981243353
 20
719.5999999982778
 97
        0
 75
     0
 76
     1
 52
0.0
 41
53.333333336
 77
     1
 78
     1
 53
45.0
 43
104865.5476920186
 44
34255.65351030482
 45
-4.714045208146019
 46
4.714045208146019
 79
     0
 47
0.0
 98
        2
 10
600.8129812364787
 20
721.2996270330004
 10
752.8129812440748
 20
724.4996270331649
1001
ACAD
1010
0.0
1020
0.0
1030
0.0
1001
HATCHBACKGROUNDCOLOR
1071
-939524096
1000

1000

  0
LWPOLYLINE
  5
194C
330
A
100
AcDbEntity
  8
部材(積層鋼板)
100
AcDbPolyline
 90
        8
 70
     1
 43
0.0
 10
586.857425678449
 20
674.711111105375
 10
586.857425678449
 20
719.466666664939
 42
-0.414213562373
 10
586.990759011795
 20
719.599999998278
 10
791.746314579359
 20
719.599999998278
 10
791.746314579359
 20
728.044444441373
 10
585.079647902356
 20
728.044444441373
 42
0.414213562373
 10
578.412981235349
 20
721.377777774374
 10
578.412981235349
 20
674.711111105375
  0
HATCH
  5
194D
330
A
100
AcDbEntity
  8
シーリング(IBｼﾘｺｰﾝ)
100
AcDbHatch
 10
0.0
 20
0.0
 30
0.0
210
0.0
220
0.0
230
1.0
  2
DOTS1
 70
     0
 71
     1
 91
        1
 92
        5
 93
        7
 72
     1
 10
605.5240923460515
 20
675.3996598483936
 11
605.5240923460515
 21
683.9636269550283
 72
     3
 10
597.5240923456586
 20
683.9636269550283
 11
-8.0000000004
 21
0.0
 40
0.366666666667091
 50
180.0
 51
360.0
 73
     1
 72
     1
 10
589.5240923452511
 20
683.9636269550283
 11
589.5240923452511
 21
672.0444444385721
 72
     1
 10
589.5240923452511
 20
672.0444444385721
 11
575.7463145685615
 21
672.0444444385721
 72
     1
 10
575.7463145685615
 20
672.0444444385721
 11
575.7463145685615
 21
679.0937604336286
 72
     2
 10
574.9463147914066
 20
679.0937604336286
 40
0.7999997771512247
 50
0.0
 51
149.1417715584045
 73
     1
 72
     3
 10
589.3018701239052
 20
675.3996598483936
 11
-16.22222222214728
 21
0.0
 40
0.6757744041277383
 50
344.7378415051962
 51
540.0
 73
     1
 97
        7
330
194E
330
194F
330
1953
330
1952
330
1950
330
1954
330
1951
 75
     0
 76
     1
 52
45.0
 41
40.000000002
 77
     0
 78
     1
 53
45.0
 43
55923.3018728906
 44
20170.00000097881
 45
-0.8838834765273785
 46
2.651650429582136
 79
     2
 49
0.0
 49
-2.500000000125
 47
0.0
 98
        1
 10
595.3018701241963
 20
671.3333333372029
1001
ACAD
1010
0.0
1020
0.0
1030
0.0
1001
HATCHBACKGROUNDCOLOR
1071
-939524096
1000

1000

  0
LINE
  5
194E
102
{ACAD_REACTORS
330
194D
102
}
330
A
100
AcDbEntity
  8
シーリング(IBｼﾘｺｰﾝ)
100
AcDbLine
 10
605.524092346051
 20
675.399659848394
 30
0.0
 11
605.524092346051
 21
683.963626955028
 31
0.0
  0
ELLIPSE
  5
194F
102
{ACAD_REACTORS
330
194D
102
}
330
A
100
AcDbEntity
  8
シーリング(IBｼﾘｺｰﾝ)
100
AcDbEllipse
 10
597.524092345659
 20
683.963626955028
 30
0.0
 11
-8.0000000004
 21
0.0
 31
0.0
210
0.0
220
0.0
230
1.0
 40
0.366666666667
 41
3.141592653589793
 42
6.283185307179586
  0
LINE
  5
1950
102
{ACAD_REACTORS
330
194D
102
}
330
A
100
AcDbEntity
  8
シーリング(IBｼﾘｺｰﾝ)
100
AcDbLine
 10
575.746314568562
 20
672.044444438572
 30
0.0
 11
575.746314568562
 21
679.093760433629
 31
0.0
  0
ELLIPSE
  5
1951
102
{ACAD_REACTORS
330
194D
102
}
330
A
100
AcDbEntity
  8
シーリング(IBｼﾘｺｰﾝ)
100
AcDbEllipse
 10
589.301870123905
 20
675.399659848394
 30
0.0
 11
-16.22222222214728
 21
0.0
 31
0.0
210
0.0
220
0.0
230
1.0
 40
0.675774404128
 41
5.899430804014107
 42
9.42477796076938
  0
LINE
  5
1952
102
{ACAD_REACTORS
330
194D
102
}
330
A
100
AcDbEntity
  8
シーリング(IBｼﾘｺｰﾝ)
100
AcDbLine
 10
575.746314568562
 20
672.044444438572
 30
0.0
 11
589.524092345251
 21
672.044444438572
 31
0.0
  0
LINE
  5
1953
102
{ACAD_REACTORS
330
194D
102
}
330
A
100
AcDbEntity
  8
シーリング(IBｼﾘｺｰﾝ)
100
AcDbLine
 10
589.524092345251
 20
672.044444438572
 30
0.0
 11
589.524092345251
 21
683.963626955028
 31
0.0
  0
ARC
  5
1954
102
{ACAD_REACTORS
330
194D
102
}
330
A
100
AcDbEntity
  8
シーリング(IBｼﾘｺｰﾝ)
100
AcDbCircle
 10
574.946314791407
 20
679.093760433629
 30
0.0
 40
0.7999997771512247
100
AcDbArc
 50
0.0
 51
149.141771558404
  0
LINE
  5
1955
330
A
100
AcDbEntity
  8
中心線
 48
0.25
100
AcDbLine
 10
738.412990776807
 20
734.23620308534
 30
0.0
 11
738.412990776807
 21
559.531274727455
 31
0.0
  0
LINE
  5
1956
330
A
100
AcDbEntity
  8
部材(ﾋﾞｽ類)
370
     5
100
AcDbLine
 10
735.212990774235
 20
656.175565454803
 30
0.0
 11
735.212990774235
 21
653.941150470317
 31
0.0
  0
LINE
  5
1957
330
A
100
AcDbEntity
  8
部材(ﾋﾞｽ類)
370
     5
100
AcDbLine
 10
735.212990774235
 20
652.442803229314
 30
0.0
 11
735.212990774235
 21
650.371024468724
 31
0.0
  0
LINE
  5
1958
330
A
100
AcDbEntity
  8
部材(ﾋﾞｽ類)
370
     5
100
AcDbLine
 10
735.212990774235
 20
648.655565454428
 30
0.0
 11
735.212990774235
 21
646.421150469941
 31
0.0
  0
LINE
  5
1959
330
A
100
AcDbEntity
  8
部材(ﾋﾞｽ類)
370
     5
100
AcDbLine
 10
741.814993071966
 20
659.840744288071
 30
0.0
 11
741.663345176275
 21
657.67207834313
 31
0.0
  0
LINE
  5
195A
330
A
100
AcDbEntity
  8
部材(ﾋﾞｽ類)
370
     5
100
AcDbLine
 10
741.612990774578
 20
656.202803229495
 30
0.0
 11
741.612990774578
 21
653.968388245026
 31
0.0
  0
LINE
  5
195B
330
A
100
AcDbEntity
  8
部材(ﾋﾞｽ類)
370
     5
100
AcDbLine
 10
741.612990774578
 20
652.25292923073
 30
0.0
 11
741.612990774578
 21
650.18115047014
 31
0.0
  0
LINE
  5
195C
330
A
100
AcDbEntity
  8
部材(ﾋﾞｽ類)
100
AcDbLine
 10
742.319657441287
 20
717.534704803787
 30
0.0
 11
742.319657441287
 21
660.711976850191
 31
0.0
  0
LINE
  5
195D
330
A
100
AcDbEntity
  8
部材(ﾋﾞｽ類)
100
AcDbLine
 10
734.50632410754
 20
717.534704803787
 30
0.0
 11
734.50632410754
 21
660.711976850191
 31
0.0
  0
LINE
  5
195E
330
A
100
AcDbEntity
  8
部材(ﾋﾞｽ類)
100
AcDbLine
 10
727.746324107211
 20
728.978643520266
 30
0.0
 11
749.079657441616
 21
728.978643520266
 31
0.0
  0
ARC
  5
195F
330
A
100
AcDbEntity
  8
部材(ﾋﾞｽ類)
100
AcDbCircle
 10
748.012990774892
 20
728.978643520266
 30
0.0
 40
1.06666666672
100
AcDbArc
 50
298.858821463479
 51
90.0
  0
LINE
  5
1960
330
A
100
AcDbEntity
  8
部材(ﾋﾞｽ類)
100
AcDbLine
 10
728.812990773935
 20
730.04531018699
 30
0.0
 11
748.012990774892
 21
730.04531018699
 31
0.0
  0
ARC
  5
1961
330
A
100
AcDbEntity
  8
部材(ﾋﾞｽ類)
100
AcDbCircle
 10
754.319657441883
 20
717.534704803787
 30
0.0
 40
12.0000000006
100
AcDbArc
 50
118.858821463499
 51
180.0
  0
ARC
  5
1962
330
A
100
AcDbEntity
  8
部材(ﾋﾞｽ類)
100
AcDbCircle
 10
728.812990773935
 20
728.978643520266
 30
0.0
 40
1.06666666672
100
AcDbArc
 50
90.0
 51
241.141178536521
  0
ARC
  5
1963
330
A
100
AcDbEntity
  8
部材(ﾋﾞｽ類)
100
AcDbCircle
 10
722.506324106944
 20
717.534704803787
 30
0.0
 40
12.0000000006
100
AcDbArc
 50
0.0
 51
61.141178536501
  0
LINE
  5
1964
330
A
100
AcDbEntity
  8
部材(ﾋﾞｽ類)
100
AcDbLine
 10
742.319657441287
 20
660.711976850191
 30
0.0
 11
734.50632410754
 21
660.711976850191
 31
0.0
  0
LINE
  5
1965
330
A
100
AcDbEntity
  8
部材(ﾋﾞｽ類)
370
     5
100
AcDbLine
 10
742.594210750132
 20
660.102338794317
 30
0.0
 11
732.812990774139
 21
656.818643516664
 31
0.0
  0
LINE
  5
1966
330
A
100
AcDbEntity
  8
部材(ﾋﾞｽ類)
370
     5
100
AcDbLine
 10
740.587752654377
 20
660.711976850191
 30
0.0
 11
732.812990774139
 21
657.085310183342
 31
0.0
  0
LINE
  5
1967
330
A
100
AcDbEntity
  8
部材(ﾋﾞｽ類)
370
     5
100
AcDbLine
 10
742.679657441287
 20
656.818643516664
 30
0.0
 11
734.14632410754
 21
653.05864351647
 31
0.0
  0
LINE
  5
1968
330
A
100
AcDbEntity
  8
部材(ﾋﾞｽ類)
370
     5
100
AcDbLine
 10
742.679657441287
 20
657.085310183342
 30
0.0
 11
734.14632410754
 21
653.325310183165
 31
0.0
  0
LINE
  5
1969
330
A
100
AcDbEntity
  8
部材(ﾋﾞｽ類)
370
     5
100
AcDbLine
 10
732.812990774139
 20
657.085310183342
 30
0.0
 11
732.812990774139
 21
656.818643516664
 31
0.0
  0
LINE
  5
196A
330
A
100
AcDbEntity
  8
部材(ﾋﾞｽ類)
370
     5
100
AcDbLine
 10
732.812990774139
 20
656.818643516664
 30
0.0
 11
735.212990774235
 21
656.175565454803
 31
0.0
  0
LINE
  5
196B
330
A
100
AcDbEntity
  8
部材(ﾋﾞｽ類)
370
     5
100
AcDbLine
 10
734.14632410754
 20
653.325310183165
 30
0.0
 11
734.14632410754
 21
653.05864351647
 31
0.0
  0
LINE
  5
196C
330
A
100
AcDbEntity
  8
部材(ﾋﾞｽ類)
370
     5
100
AcDbLine
 10
734.14632410754
 20
653.05864351647
 30
0.0
 11
735.212990774235
 21
652.442803229314
 31
0.0
  0
LINE
  5
196D
330
A
100
AcDbEntity
  8
部材(ﾋﾞｽ類)
370
     5
100
AcDbLine
 10
734.14632410754
 20
653.325310183165
 30
0.0
 11
735.212990774235
 21
653.941150470317
 31
0.0
  0
LINE
  5
196E
330
A
100
AcDbEntity
  8
部材(ﾋﾞｽ類)
370
     5
100
AcDbLine
 10
742.319657441287
 20
660.711976850191
 30
0.0
 11
742.594210750132
 21
660.102338794317
 31
0.0
  0
LINE
  5
196F
330
A
100
AcDbEntity
  8
部材(ﾋﾞｽ類)
370
     5
100
AcDbLine
 10
742.679657441287
 20
657.085310183342
 30
0.0
 11
742.679657441287
 21
656.818643516664
 31
0.0
  0
LINE
  5
1970
330
A
100
AcDbEntity
  8
部材(ﾋﾞｽ類)
370
     5
100
AcDbLine
 10
742.679657441287
 20
656.818643516664
 30
0.0
 11
741.612990774578
 21
656.202803229495
 31
0.0
  0
LINE
  5
1971
330
A
100
AcDbEntity
  8
部材(ﾋﾞｽ類)
370
     5
100
AcDbLine
 10
742.679657441287
 20
657.085310183342
 30
0.0
 11
741.663345176275
 21
657.67207834313
 31
0.0
  0
LINE
  5
1972
330
A
100
AcDbEntity
  8
部材(ﾋﾞｽ類)
370
     5
100
AcDbLine
 10
741.211854159905
 20
659.638261939035
 30
0.0
 11
735.212990774235
 21
656.175565454803
 31
0.0
  0
LINE
  5
1973
330
A
100
AcDbEntity
  8
部材(ﾋﾞｽ類)
370
     5
100
AcDbLine
 10
740.28547648208
 20
660.711976850191
 30
0.0
 11
739.094527655659
 21
660.015437276066
 31
0.0
  0
LINE
  5
1974
330
A
100
AcDbEntity
  8
部材(ﾋﾞｽ類)
370
     5
100
AcDbLine
 10
741.612990774578
 20
656.202803229495
 30
0.0
 11
735.212990774235
 21
652.442803229314
 31
0.0
  0
LINE
  5
1975
330
A
100
AcDbEntity
  8
部材(ﾋﾞｽ類)
370
     5
100
AcDbLine
 10
735.212990774235
 20
653.941150470317
 30
0.0
 11
741.663345176275
 21
657.67207834313
 31
0.0
  0
LINE
  5
1976
330
A
100
AcDbEntity
  8
部材(ﾋﾞｽ類)
370
     5
100
AcDbLine
 10
744.012990774689
 20
653.05864351647
 30
0.0
 11
732.812990774139
 21
649.298643516289
 31
0.0
  0
LINE
  5
1977
330
A
100
AcDbEntity
  8
部材(ﾋﾞｽ類)
370
     5
100
AcDbLine
 10
744.012990774689
 20
653.325310183165
 30
0.0
 11
732.812990774139
 21
649.565310182967
 31
0.0
  0
LINE
  5
1978
330
A
100
AcDbEntity
  8
部材(ﾋﾞｽ類)
370
     5
100
AcDbLine
 10
742.679657441287
 20
649.298643516289
 30
0.0
 11
734.14632410754
 21
645.538643516094
 31
0.0
  0
LINE
  5
1979
330
A
100
AcDbEntity
  8
部材(ﾋﾞｽ類)
370
     5
100
AcDbLine
 10
742.679657441287
 20
649.565310182967
 30
0.0
 11
734.14632410754
 21
645.80531018279
 31
0.0
  0
LINE
  5
197A
330
A
100
AcDbEntity
  8
部材(ﾋﾞｽ類)
370
     5
100
AcDbLine
 10
732.812990774139
 20
649.565310182967
 30
0.0
 11
732.812990774139
 21
649.298643516289
 31
0.0
  0
LINE
  5
197B
330
A
100
AcDbEntity
  8
部材(ﾋﾞｽ類)
370
     5
100
AcDbLine
 10
732.812990774139
 20
649.298643516289
 30
0.0
 11
735.212990774235
 21
648.655565454428
 31
0.0
  0
LINE
  5
197C
330
A
100
AcDbEntity
  8
部材(ﾋﾞｽ類)
370
     5
100
AcDbLine
 10
734.14632410754
 20
645.80531018279
 30
0.0
 11
734.14632410754
 21
645.538643516094
 31
0.0
  0
LINE
  5
197D
330
A
100
AcDbEntity
  8
部材(ﾋﾞｽ類)
370
     5
100
AcDbLine
 10
734.14632410754
 20
645.538643516094
 30
0.0
 11
735.212990774235
 21
644.922803228939
 31
0.0
  0
LINE
  5
197E
330
A
100
AcDbEntity
  8
部材(ﾋﾞｽ類)
370
     5
100
AcDbLine
 10
734.14632410754
 20
645.80531018279
 30
0.0
 11
735.212990774235
 21
646.421150469941
 31
0.0
  0
LINE
  5
197F
330
A
100
AcDbEntity
  8
部材(ﾋﾞｽ類)
370
     5
100
AcDbLine
 10
744.012990774689
 20
653.325310183165
 30
0.0
 11
744.012990774689
 21
653.05864351647
 31
0.0
  0
LINE
  5
1980
330
A
100
AcDbEntity
  8
部材(ﾋﾞｽ類)
370
     5
100
AcDbLine
 10
744.012990774689
 20
653.325310183165
 30
0.0
 11
741.612990774578
 21
653.968388245026
 31
0.0
  0
LINE
  5
1981
330
A
100
AcDbEntity
  8
部材(ﾋﾞｽ類)
370
     5
100
AcDbLine
 10
742.679657441287
 20
649.565310182967
 30
0.0
 11
742.679657441287
 21
649.298643516289
 31
0.0
  0
LINE
  5
1982
330
A
100
AcDbEntity
  8
部材(ﾋﾞｽ類)
370
     5
100
AcDbLine
 10
742.679657441287
 20
649.298643516289
 30
0.0
 11
741.612990774578
 21
648.68280322912
 31
0.0
  0
LINE
  5
1983
330
A
100
AcDbEntity
  8
部材(ﾋﾞｽ類)
370
     5
100
AcDbLine
 10
742.679657441287
 20
649.565310182967
 30
0.0
 11
741.612990774578
 21
650.18115047014
 31
0.0
  0
LINE
  5
1984
330
A
100
AcDbEntity
  8
部材(ﾋﾞｽ類)
370
     5
100
AcDbLine
 10
740.967059672606
 20
652.036080932197
 30
0.0
 11
735.212990774235
 21
648.655565454428
 31
0.0
  0
LINE
  5
1985
330
A
100
AcDbEntity
  8
部材(ﾋﾞｽ類)
370
     5
100
AcDbLine
 10
741.612990774578
 20
653.968388245026
 30
0.0
 11
735.858921876221
 21
650.587872767235
 31
0.0
  0
LINE
  5
1986
330
A
100
AcDbEntity
  8
部材(ﾋﾞｽ類)
370
     5
100
AcDbLine
 10
741.612990774578
 20
648.68280322912
 30
0.0
 11
735.212990774235
 21
644.922803228939
 31
0.0
  0
LINE
  5
1987
330
A
100
AcDbEntity
  8
部材(ﾋﾞｽ類)
370
     5
100
AcDbLine
 10
735.212990774235
 20
646.421150469941
 30
0.0
 11
741.612990774578
 21
650.18115047014
 31
0.0
  0
LINE
  5
1988
330
A
100
AcDbEntity
  8
部材(ﾋﾞｽ類)
370
     5
100
AcDbLine
 10
734.993595812979
 20
660.089470969637
 30
0.0
 11
735.128150124146
 21
658.165254672007
 31
0.0
  0
LINE
  5
1989
330
A
100
AcDbEntity
  8
部材(ﾋﾞｽ類)
370
     5
100
AcDbLine
 10
735.146894641148
 20
660.711976850191
 30
0.0
 11
734.475369127991
 21
660.38866928573
 31
0.0
  0
LINE
  5
198A
330
A
100
AcDbEntity
  8
部材(ﾋﾞｽ類)
370
     5
100
AcDbLine
 10
734.50632410754
 20
660.711976850191
 30
0.0
 11
734.475369127991
 21
660.38866928573
 31
0.0
  0
LINE
  5
198B
330
A
100
AcDbEntity
  8
部材(ﾋﾞｽ類)
370
     5
100
AcDbLine
 10
734.475369127991
 20
660.38866928573
 30
0.0
 11
734.993595812979
 21
660.089470969637
 31
0.0
  0
LINE
  5
198C
330
A
100
AcDbEntity
  8
部材(ﾋﾞｽ類)
370
     5
100
AcDbLine
 10
736.127709622044
 20
660.711976850191
 30
0.0
 11
734.993595812979
 21
660.089470969637
 31
0.0
  0
LINE
  5
198D
330
A
100
AcDbEntity
  8
部材(ﾋﾞｽ類)
370
     5
100
AcDbLine
 10
735.212990774235
 20
644.922803228939
 30
0.0
 11
735.212990774235
 21
642.851024468349
 31
0.0
  0
LINE
  5
198E
330
A
100
AcDbEntity
  8
部材(ﾋﾞｽ類)
370
     5
100
AcDbLine
 10
735.212990774235
 20
641.135565454053
 30
0.0
 11
735.212990774235
 21
638.901150469566
 31
0.0
  0
LINE
  5
198F
330
A
100
AcDbEntity
  8
部材(ﾋﾞｽ類)
370
     5
100
AcDbLine
 10
741.612990774578
 20
648.68280322912
 30
0.0
 11
741.612990774578
 21
646.448388244651
 31
0.0
  0
LINE
  5
1990
330
A
100
AcDbEntity
  8
部材(ﾋﾞｽ類)
370
     5
100
AcDbLine
 10
741.612990774578
 20
644.732929230355
 30
0.0
 11
741.612990774578
 21
642.661150469765
 31
0.0
  0
LINE
  5
1991
330
A
100
AcDbEntity
  8
部材(ﾋﾞｽ類)
370
     5
100
AcDbLine
 10
744.012990774689
 20
645.538643516094
 30
0.0
 11
732.812990774139
 21
641.778643515914
 31
0.0
  0
LINE
  5
1992
330
A
100
AcDbEntity
  8
部材(ﾋﾞｽ類)
370
     5
100
AcDbLine
 10
744.012990774689
 20
645.80531018279
 30
0.0
 11
732.812990774139
 21
642.045310182591
 31
0.0
  0
LINE
  5
1993
330
A
100
AcDbEntity
  8
部材(ﾋﾞｽ類)
370
     5
100
AcDbLine
 10
742.679657441287
 20
641.778643515914
 30
0.0
 11
734.14632410754
 21
638.018643515719
 31
0.0
  0
LINE
  5
1994
330
A
100
AcDbEntity
  8
部材(ﾋﾞｽ類)
370
     5
100
AcDbLine
 10
742.679657441287
 20
642.045310182591
 30
0.0
 11
734.14632410754
 21
638.285310182393
 31
0.0
  0
LINE
  5
1995
330
A
100
AcDbEntity
  8
部材(ﾋﾞｽ類)
370
     5
100
AcDbLine
 10
732.812990774139
 20
642.045310182591
 30
0.0
 11
732.812990774139
 21
641.778643515914
 31
0.0
  0
LINE
  5
1996
330
A
100
AcDbEntity
  8
部材(ﾋﾞｽ類)
370
     5
100
AcDbLine
 10
732.812990774139
 20
641.778643515914
 30
0.0
 11
735.212990774235
 21
641.135565454053
 31
0.0
  0
LINE
  5
1997
330
A
100
AcDbEntity
  8
部材(ﾋﾞｽ類)
370
     5
100
AcDbLine
 10
734.14632410754
 20
638.285310182393
 30
0.0
 11
734.14632410754
 21
638.018643515719
 31
0.0
  0
LINE
  5
1998
330
A
100
AcDbEntity
  8
部材(ﾋﾞｽ類)
370
     5
100
AcDbLine
 10
734.14632410754
 20
638.018643515719
 30
0.0
 11
735.212990774235
 21
637.402803228564
 31
0.0
  0
LINE
  5
1999
330
A
100
AcDbEntity
  8
部材(ﾋﾞｽ類)
370
     5
100
AcDbLine
 10
734.14632410754
 20
638.285310182393
 30
0.0
 11
735.212990774235
 21
638.901150469566
 31
0.0
  0
LINE
  5
199A
330
A
100
AcDbEntity
  8
部材(ﾋﾞｽ類)
370
     5
100
AcDbLine
 10
744.012990774689
 20
645.80531018279
 30
0.0
 11
744.012990774689
 21
645.538643516094
 31
0.0
  0
LINE
  5
199B
330
A
100
AcDbEntity
  8
部材(ﾋﾞｽ類)
370
     5
100
AcDbLine
 10
744.012990774689
 20
645.80531018279
 30
0.0
 11
741.612990774578
 21
646.448388244651
 31
0.0
  0
LINE
  5
199C
330
A
100
AcDbEntity
  8
部材(ﾋﾞｽ類)
370
     5
100
AcDbLine
 10
742.679657441287
 20
642.045310182591
 30
0.0
 11
742.679657441287
 21
641.778643515914
 31
0.0
  0
LINE
  5
199D
330
A
100
AcDbEntity
  8
部材(ﾋﾞｽ類)
370
     5
100
AcDbLine
 10
742.679657441287
 20
641.778643515914
 30
0.0
 11
741.612990774578
 21
641.162803228744
 31
0.0
  0
LINE
  5
199E
330
A
100
AcDbEntity
  8
部材(ﾋﾞｽ類)
370
     5
100
AcDbLine
 10
742.679657441287
 20
642.045310182591
 30
0.0
 11
741.612990774578
 21
642.661150469765
 31
0.0
  0
LINE
  5
199F
330
A
100
AcDbEntity
  8
部材(ﾋﾞｽ類)
370
     5
100
AcDbLine
 10
740.967059672606
 20
644.516080931822
 30
0.0
 11
735.212990774235
 21
641.135565454053
 31
0.0
  0
LINE
  5
19A0
330
A
100
AcDbEntity
  8
部材(ﾋﾞｽ類)
370
     5
100
AcDbLine
 10
741.612990774578
 20
646.448388244651
 30
0.0
 11
735.858921876221
 21
643.06787276686
 31
0.0
  0
LINE
  5
19A1
330
A
100
AcDbEntity
  8
部材(ﾋﾞｽ類)
370
     5
100
AcDbLine
 10
741.612990774578
 20
641.162803228744
 30
0.0
 11
735.212990774235
 21
637.402803228564
 31
0.0
  0
LINE
  5
19A2
330
A
100
AcDbEntity
  8
部材(ﾋﾞｽ類)
370
     5
100
AcDbLine
 10
735.212990774235
 20
638.901150469566
 30
0.0
 11
741.612990774578
 21
642.661150469765
 31
0.0
  0
LINE
  5
19A3
330
A
100
AcDbEntity
  8
部材(ﾋﾞｽ類)
370
     5
100
AcDbLine
 10
735.212990774235
 20
637.402803228564
 30
0.0
 11
735.212990774235
 21
635.331024467974
 31
0.0
  0
LINE
  5
19A4
330
A
100
AcDbEntity
  8
部材(ﾋﾞｽ類)
370
     5
100
AcDbLine
 10
735.212990774235
 20
633.61556545366
 30
0.0
 11
735.212990774235
 21
631.381150469191
 31
0.0
  0
LINE
  5
19A5
330
A
100
AcDbEntity
  8
部材(ﾋﾞｽ類)
370
     5
100
AcDbLine
 10
741.612990774578
 20
641.162803228744
 30
0.0
 11
741.612990774578
 21
638.928388244276
 31
0.0
  0
LINE
  5
19A6
330
A
100
AcDbEntity
  8
部材(ﾋﾞｽ類)
370
     5
100
AcDbLine
 10
741.612990774578
 20
637.21292922998
 30
0.0
 11
741.612990774578
 21
635.14115046939
 31
0.0
  0
LINE
  5
19A7
330
A
100
AcDbEntity
  8
部材(ﾋﾞｽ類)
370
     5
100
AcDbLine
 10
744.012990774689
 20
638.018643515719
 30
0.0
 11
732.812990774139
 21
634.258643515539
 31
0.0
  0
LINE
  5
19A8
330
A
100
AcDbEntity
  8
部材(ﾋﾞｽ類)
370
     5
100
AcDbLine
 10
744.012990774689
 20
638.285310182393
 30
0.0
 11
732.812990774139
 21
634.525310182216
 31
0.0
  0
LINE
  5
19A9
330
A
100
AcDbEntity
  8
部材(ﾋﾞｽ類)
370
     5
100
AcDbLine
 10
742.679657441287
 20
634.258643515539
 30
0.0
 11
734.14632410754
 21
630.498643515344
 31
0.0
  0
LINE
  5
19AA
330
A
100
AcDbEntity
  8
部材(ﾋﾞｽ類)
370
     5
100
AcDbLine
 10
742.679657441287
 20
634.525310182216
 30
0.0
 11
734.14632410754
 21
630.765310182018
 31
0.0
  0
LINE
  5
19AB
330
A
100
AcDbEntity
  8
部材(ﾋﾞｽ類)
370
     5
100
AcDbLine
 10
732.812990774139
 20
634.525310182216
 30
0.0
 11
732.812990774139
 21
634.258643515539
 31
0.0
  0
LINE
  5
19AC
330
A
100
AcDbEntity
  8
部材(ﾋﾞｽ類)
370
     5
100
AcDbLine
 10
732.812990774139
 20
634.258643515539
 30
0.0
 11
735.212990774235
 21
633.61556545366
 31
0.0
  0
LINE
  5
19AD
330
A
100
AcDbEntity
  8
部材(ﾋﾞｽ類)
370
     5
100
AcDbLine
 10
734.14632410754
 20
630.765310182018
 30
0.0
 11
734.14632410754
 21
630.498643515344
 31
0.0
  0
LINE
  5
19AE
330
A
100
AcDbEntity
  8
部材(ﾋﾞｽ類)
370
     5
100
AcDbLine
 10
734.14632410754
 20
630.498643515344
 30
0.0
 11
735.212990774235
 21
629.882803228189
 31
0.0
  0
LINE
  5
19AF
330
A
100
AcDbEntity
  8
部材(ﾋﾞｽ類)
370
     5
100
AcDbLine
 10
734.14632410754
 20
630.765310182018
 30
0.0
 11
735.212990774235
 21
631.381150469191
 31
0.0
  0
LINE
  5
19B0
330
A
100
AcDbEntity
  8
部材(ﾋﾞｽ類)
370
     5
100
AcDbLine
 10
744.012990774689
 20
638.285310182393
 30
0.0
 11
744.012990774689
 21
638.018643515719
 31
0.0
  0
LINE
  5
19B1
330
A
100
AcDbEntity
  8
部材(ﾋﾞｽ類)
370
     5
100
AcDbLine
 10
744.012990774689
 20
638.285310182393
 30
0.0
 11
741.612990774578
 21
638.928388244276
 31
0.0
  0
LINE
  5
19B2
330
A
100
AcDbEntity
  8
部材(ﾋﾞｽ類)
370
     5
100
AcDbLine
 10
742.679657441287
 20
634.525310182216
 30
0.0
 11
742.679657441287
 21
634.258643515539
 31
0.0
  0
LINE
  5
19B3
330
A
100
AcDbEntity
  8
部材(ﾋﾞｽ類)
370
     5
100
AcDbLine
 10
742.679657441287
 20
634.258643515539
 30
0.0
 11
741.612990774578
 21
633.642803228369
 31
0.0
  0
LINE
  5
19B4
330
A
100
AcDbEntity
  8
部材(ﾋﾞｽ類)
370
     5
100
AcDbLine
 10
742.679657441287
 20
634.525310182216
 30
0.0
 11
741.612990774578
 21
635.14115046939
 31
0.0
  0
LINE
  5
19B5
330
A
100
AcDbEntity
  8
部材(ﾋﾞｽ類)
370
     5
100
AcDbLine
 10
740.967059672606
 20
636.996080931447
 30
0.0
 11
735.212990774235
 21
633.61556545366
 31
0.0
  0
LINE
  5
19B6
330
A
100
AcDbEntity
  8
部材(ﾋﾞｽ類)
370
     5
100
AcDbLine
 10
741.612990774578
 20
638.928388244276
 30
0.0
 11
735.858921876221
 21
635.547872766485
 31
0.0
  0
LINE
  5
19B7
330
A
100
AcDbEntity
  8
部材(ﾋﾞｽ類)
370
     5
100
AcDbLine
 10
741.612990774578
 20
633.642803228369
 30
0.0
 11
735.212990774235
 21
629.882803228189
 31
0.0
  0
LINE
  5
19B8
330
A
100
AcDbEntity
  8
部材(ﾋﾞｽ類)
370
     5
100
AcDbLine
 10
735.212990774235
 20
631.381150469191
 30
0.0
 11
741.612990774578
 21
635.14115046939
 31
0.0
  0
LINE
  5
19B9
330
A
100
AcDbEntity
  8
部材(ﾋﾞｽ類)
370
     5
100
AcDbLine
 10
735.212990774235
 20
629.882803228189
 30
0.0
 11
735.212990774235
 21
627.811024467599
 31
0.0
  0
LINE
  5
19BA
330
A
100
AcDbEntity
  8
部材(ﾋﾞｽ類)
370
     5
100
AcDbLine
 10
735.212990774235
 20
626.095565453285
 30
0.0
 11
735.212990774235
 21
623.861150468816
 31
0.0
  0
LINE
  5
19BB
330
A
100
AcDbEntity
  8
部材(ﾋﾞｽ類)
370
     5
100
AcDbLine
 10
741.612990774578
 20
633.642803228369
 30
0.0
 11
741.612990774578
 21
631.408388243901
 31
0.0
  0
LINE
  5
19BC
330
A
100
AcDbEntity
  8
部材(ﾋﾞｽ類)
370
     5
100
AcDbLine
 10
741.612990774578
 20
629.692929229583
 30
0.0
 11
741.612990774578
 21
627.621150469015
 31
0.0
  0
LINE
  5
19BD
330
A
100
AcDbEntity
  8
部材(ﾋﾞｽ類)
370
     5
100
AcDbLine
 10
744.012990774689
 20
630.498643515344
 30
0.0
 11
732.812990774139
 21
626.738643515164
 31
0.0
  0
LINE
  5
19BE
330
A
100
AcDbEntity
  8
部材(ﾋﾞｽ類)
370
     5
100
AcDbLine
 10
744.012990774689
 20
630.765310182018
 30
0.0
 11
732.812990774139
 21
627.005310181841
 31
0.0
  0
LINE
  5
19BF
330
A
100
AcDbEntity
  8
部材(ﾋﾞｽ類)
370
     5
100
AcDbLine
 10
742.679657441287
 20
626.738643515164
 30
0.0
 11
734.14632410754
 21
622.978643514969
 31
0.0
  0
LINE
  5
19C0
330
A
100
AcDbEntity
  8
部材(ﾋﾞｽ類)
370
     5
100
AcDbLine
 10
742.679657441287
 20
627.005310181841
 30
0.0
 11
734.14632410754
 21
623.245310181643
 31
0.0
  0
LINE
  5
19C1
330
A
100
AcDbEntity
  8
部材(ﾋﾞｽ類)
370
     5
100
AcDbLine
 10
732.812990774139
 20
627.005310181841
 30
0.0
 11
732.812990774139
 21
626.738643515164
 31
0.0
  0
LINE
  5
19C2
330
A
100
AcDbEntity
  8
部材(ﾋﾞｽ類)
370
     5
100
AcDbLine
 10
732.812990774139
 20
626.738643515164
 30
0.0
 11
735.212990774235
 21
626.095565453285
 31
0.0
  0
LINE
  5
19C3
330
A
100
AcDbEntity
  8
部材(ﾋﾞｽ類)
370
     5
100
AcDbLine
 10
734.14632410754
 20
623.245310181643
 30
0.0
 11
734.14632410754
 21
622.978643514969
 31
0.0
  0
LINE
  5
19C4
330
A
100
AcDbEntity
  8
部材(ﾋﾞｽ類)
370
     5
100
AcDbLine
 10
734.14632410754
 20
622.978643514969
 30
0.0
 11
735.212990774235
 21
622.362803227814
 31
0.0
  0
LINE
  5
19C5
330
A
100
AcDbEntity
  8
部材(ﾋﾞｽ類)
370
     5
100
AcDbLine
 10
734.14632410754
 20
623.245310181643
 30
0.0
 11
735.212990774235
 21
623.861150468816
 31
0.0
  0
LINE
  5
19C6
330
A
100
AcDbEntity
  8
部材(ﾋﾞｽ類)
370
     5
100
AcDbLine
 10
744.012990774689
 20
630.765310182018
 30
0.0
 11
744.012990774689
 21
630.498643515344
 31
0.0
  0
LINE
  5
19C7
330
A
100
AcDbEntity
  8
部材(ﾋﾞｽ類)
370
     5
100
AcDbLine
 10
744.012990774689
 20
630.765310182018
 30
0.0
 11
741.612990774578
 21
631.408388243901
 31
0.0
  0
LINE
  5
19C8
330
A
100
AcDbEntity
  8
部材(ﾋﾞｽ類)
370
     5
100
AcDbLine
 10
742.679657441287
 20
627.005310181841
 30
0.0
 11
742.679657441287
 21
626.738643515164
 31
0.0
  0
LINE
  5
19C9
330
A
100
AcDbEntity
  8
部材(ﾋﾞｽ類)
370
     5
100
AcDbLine
 10
742.679657441287
 20
626.738643515164
 30
0.0
 11
741.612990774578
 21
626.122803227994
 31
0.0
  0
LINE
  5
19CA
330
A
100
AcDbEntity
  8
部材(ﾋﾞｽ類)
370
     5
100
AcDbLine
 10
742.679657441287
 20
627.005310181841
 30
0.0
 11
741.612990774578
 21
627.621150469015
 31
0.0
  0
LINE
  5
19CB
330
A
100
AcDbEntity
  8
部材(ﾋﾞｽ類)
370
     5
100
AcDbLine
 10
740.967059672606
 20
629.476080931072
 30
0.0
 11
735.212990774235
 21
626.095565453285
 31
0.0
  0
LINE
  5
19CC
330
A
100
AcDbEntity
  8
部材(ﾋﾞｽ類)
370
     5
100
AcDbLine
 10
741.612990774578
 20
631.408388243901
 30
0.0
 11
735.858921876221
 21
628.02787276611
 31
0.0
  0
LINE
  5
19CD
330
A
100
AcDbEntity
  8
部材(ﾋﾞｽ類)
370
     5
100
AcDbLine
 10
741.612990774578
 20
626.122803227994
 30
0.0
 11
735.212990774235
 21
622.362803227814
 31
0.0
  0
LINE
  5
19CE
330
A
100
AcDbEntity
  8
部材(ﾋﾞｽ類)
370
     5
100
AcDbLine
 10
735.212990774235
 20
623.861150468816
 30
0.0
 11
741.612990774578
 21
627.621150469015
 31
0.0
  0
LINE
  5
19CF
330
A
100
AcDbEntity
  8
部材(ﾋﾞｽ類)
370
     5
100
AcDbLine
 10
735.212990774235
 20
622.362803227814
 30
0.0
 11
735.212990774235
 21
620.291024467224
 31
0.0
  0
LINE
  5
19D0
330
A
100
AcDbEntity
  8
部材(ﾋﾞｽ類)
370
     5
100
AcDbLine
 10
735.212990774235
 20
618.575565452909
 30
0.0
 11
735.212990774235
 21
616.341150468441
 31
0.0
  0
LINE
  5
19D1
330
A
100
AcDbEntity
  8
部材(ﾋﾞｽ類)
370
     5
100
AcDbLine
 10
741.612990774578
 20
626.122803227994
 30
0.0
 11
741.612990774578
 21
623.888388243526
 31
0.0
  0
LINE
  5
19D2
330
A
100
AcDbEntity
  8
部材(ﾋﾞｽ類)
370
     5
100
AcDbLine
 10
741.612990774578
 20
622.172929229208
 30
0.0
 11
741.612990774578
 21
620.101150468639
 31
0.0
  0
LINE
  5
19D3
330
A
100
AcDbEntity
  8
部材(ﾋﾞｽ類)
370
     5
100
AcDbLine
 10
744.012990774689
 20
622.978643514969
 30
0.0
 11
732.812990774139
 21
619.218643514789
 31
0.0
  0
LINE
  5
19D4
330
A
100
AcDbEntity
  8
部材(ﾋﾞｽ類)
370
     5
100
AcDbLine
 10
744.012990774689
 20
623.245310181643
 30
0.0
 11
732.812990774139
 21
619.485310181466
 31
0.0
  0
LINE
  5
19D5
330
A
100
AcDbEntity
  8
部材(ﾋﾞｽ類)
370
     5
100
AcDbLine
 10
742.679657441287
 20
619.218643514789
 30
0.0
 11
734.14632410754
 21
615.458643514594
 31
0.0
  0
LINE
  5
19D6
330
A
100
AcDbEntity
  8
部材(ﾋﾞｽ類)
370
     5
100
AcDbLine
 10
742.679657441287
 20
619.485310181466
 30
0.0
 11
734.14632410754
 21
615.725310181268
 31
0.0
  0
LINE
  5
19D7
330
A
100
AcDbEntity
  8
部材(ﾋﾞｽ類)
370
     5
100
AcDbLine
 10
732.812990774139
 20
619.485310181466
 30
0.0
 11
732.812990774139
 21
619.218643514789
 31
0.0
  0
LINE
  5
19D8
330
A
100
AcDbEntity
  8
部材(ﾋﾞｽ類)
370
     5
100
AcDbLine
 10
732.812990774139
 20
619.218643514789
 30
0.0
 11
735.212990774235
 21
618.575565452909
 31
0.0
  0
LINE
  5
19D9
330
A
100
AcDbEntity
  8
部材(ﾋﾞｽ類)
370
     5
100
AcDbLine
 10
734.14632410754
 20
615.725310181268
 30
0.0
 11
734.14632410754
 21
615.458643514594
 31
0.0
  0
LINE
  5
19DA
330
A
100
AcDbEntity
  8
部材(ﾋﾞｽ類)
370
     5
100
AcDbLine
 10
734.14632410754
 20
615.458643514594
 30
0.0
 11
735.212990774235
 21
614.842803227421
 31
0.0
  0
LINE
  5
19DB
330
A
100
AcDbEntity
  8
部材(ﾋﾞｽ類)
370
     5
100
AcDbLine
 10
734.14632410754
 20
615.725310181268
 30
0.0
 11
735.212990774235
 21
616.341150468441
 31
0.0
  0
LINE
  5
19DC
330
A
100
AcDbEntity
  8
部材(ﾋﾞｽ類)
370
     5
100
AcDbLine
 10
744.012990774689
 20
623.245310181643
 30
0.0
 11
744.012990774689
 21
622.978643514969
 31
0.0
  0
LINE
  5
19DD
330
A
100
AcDbEntity
  8
部材(ﾋﾞｽ類)
370
     5
100
AcDbLine
 10
744.012990774689
 20
623.245310181643
 30
0.0
 11
741.612990774578
 21
623.888388243526
 31
0.0
  0
LINE
  5
19DE
330
A
100
AcDbEntity
  8
部材(ﾋﾞｽ類)
370
     5
100
AcDbLine
 10
742.679657441287
 20
619.485310181466
 30
0.0
 11
742.679657441287
 21
619.218643514789
 31
0.0
  0
LINE
  5
19DF
330
A
100
AcDbEntity
  8
部材(ﾋﾞｽ類)
370
     5
100
AcDbLine
 10
742.679657441287
 20
619.218643514789
 30
0.0
 11
741.612990774578
 21
618.602803227619
 31
0.0
  0
LINE
  5
19E0
330
A
100
AcDbEntity
  8
部材(ﾋﾞｽ類)
370
     5
100
AcDbLine
 10
742.679657441287
 20
619.485310181466
 30
0.0
 11
741.612990774578
 21
620.101150468639
 31
0.0
  0
LINE
  5
19E1
330
A
100
AcDbEntity
  8
部材(ﾋﾞｽ類)
370
     5
100
AcDbLine
 10
740.967059672606
 20
621.956080930697
 30
0.0
 11
735.212990774235
 21
618.575565452909
 31
0.0
  0
LINE
  5
19E2
330
A
100
AcDbEntity
  8
部材(ﾋﾞｽ類)
370
     5
100
AcDbLine
 10
741.612990774578
 20
623.888388243526
 30
0.0
 11
735.858921876221
 21
620.507872765735
 31
0.0
  0
LINE
  5
19E3
330
A
100
AcDbEntity
  8
部材(ﾋﾞｽ類)
370
     5
100
AcDbLine
 10
741.612990774578
 20
618.602803227619
 30
0.0
 11
735.212990774235
 21
614.842803227421
 31
0.0
  0
LINE
  5
19E4
330
A
100
AcDbEntity
  8
部材(ﾋﾞｽ類)
370
     5
100
AcDbLine
 10
735.212990774235
 20
616.341150468441
 30
0.0
 11
741.612990774578
 21
620.101150468639
 31
0.0
  0
LINE
  5
19E5
330
A
100
AcDbEntity
  8
部材(ﾋﾞｽ類)
370
     5
100
AcDbLine
 10
735.212990774235
 20
614.842803227421
 30
0.0
 11
735.212990774235
 21
612.771024466849
 31
0.0
  0
LINE
  5
19E6
330
A
100
AcDbEntity
  8
部材(ﾋﾞｽ類)
370
     5
100
AcDbLine
 10
735.212990774235
 20
611.055565452534
 30
0.0
 11
735.212990774235
 21
608.821150468066
 31
0.0
  0
LINE
  5
19E7
330
A
100
AcDbEntity
  8
部材(ﾋﾞｽ類)
370
     5
100
AcDbLine
 10
741.612990774578
 20
618.602803227619
 30
0.0
 11
741.612990774578
 21
616.368388243151
 31
0.0
  0
LINE
  5
19E8
330
A
100
AcDbEntity
  8
部材(ﾋﾞｽ類)
370
     5
100
AcDbLine
 10
741.612990774578
 20
614.652929228832
 30
0.0
 11
741.612990774578
 21
612.581150468264
 31
0.0
  0
LINE
  5
19E9
330
A
100
AcDbEntity
  8
部材(ﾋﾞｽ類)
370
     5
100
AcDbLine
 10
744.012990774689
 20
615.458643514594
 30
0.0
 11
732.812990774139
 21
611.698643514414
 31
0.0
  0
LINE
  5
19EA
330
A
100
AcDbEntity
  8
部材(ﾋﾞｽ類)
370
     5
100
AcDbLine
 10
744.012990774689
 20
615.725310181268
 30
0.0
 11
732.812990774139
 21
611.965310181091
 31
0.0
  0
LINE
  5
19EB
330
A
100
AcDbEntity
  8
部材(ﾋﾞｽ類)
370
     5
100
AcDbLine
 10
742.679657441287
 20
611.698643514414
 30
0.0
 11
734.14632410754
 21
607.938643514219
 31
0.0
  0
LINE
  5
19EC
330
A
100
AcDbEntity
  8
部材(ﾋﾞｽ類)
370
     5
100
AcDbLine
 10
742.679657441287
 20
611.965310181091
 30
0.0
 11
734.14632410754
 21
608.205310180892
 31
0.0
  0
LINE
  5
19ED
330
A
100
AcDbEntity
  8
部材(ﾋﾞｽ類)
370
     5
100
AcDbLine
 10
732.812990774139
 20
611.965310181091
 30
0.0
 11
732.812990774139
 21
611.698643514414
 31
0.0
  0
LINE
  5
19EE
330
A
100
AcDbEntity
  8
部材(ﾋﾞｽ類)
370
     5
100
AcDbLine
 10
732.812990774139
 20
611.698643514414
 30
0.0
 11
735.212990774235
 21
611.055565452534
 31
0.0
  0
LINE
  5
19EF
330
A
100
AcDbEntity
  8
部材(ﾋﾞｽ類)
370
     5
100
AcDbLine
 10
734.14632410754
 20
608.205310180892
 30
0.0
 11
734.14632410754
 21
607.938643514219
 31
0.0
  0
LINE
  5
19F0
330
A
100
AcDbEntity
  8
部材(ﾋﾞｽ類)
370
     5
100
AcDbLine
 10
734.14632410754
 20
607.938643514219
 30
0.0
 11
735.212990774235
 21
607.322803227045
 31
0.0
  0
LINE
  5
19F1
330
A
100
AcDbEntity
  8
部材(ﾋﾞｽ類)
370
     5
100
AcDbLine
 10
734.14632410754
 20
608.205310180892
 30
0.0
 11
735.212990774235
 21
608.821150468066
 31
0.0
  0
LINE
  5
19F2
330
A
100
AcDbEntity
  8
部材(ﾋﾞｽ類)
370
     5
100
AcDbLine
 10
744.012990774689
 20
615.725310181268
 30
0.0
 11
744.012990774689
 21
615.458643514594
 31
0.0
  0
LINE
  5
19F3
330
A
100
AcDbEntity
  8
部材(ﾋﾞｽ類)
370
     5
100
AcDbLine
 10
744.012990774689
 20
615.725310181268
 30
0.0
 11
741.612990774578
 21
616.368388243151
 31
0.0
  0
LINE
  5
19F4
330
A
100
AcDbEntity
  8
部材(ﾋﾞｽ類)
370
     5
100
AcDbLine
 10
742.679657441287
 20
611.965310181091
 30
0.0
 11
742.679657441287
 21
611.698643514414
 31
0.0
  0
LINE
  5
19F5
330
A
100
AcDbEntity
  8
部材(ﾋﾞｽ類)
370
     5
100
AcDbLine
 10
742.679657441287
 20
611.698643514414
 30
0.0
 11
741.612990774578
 21
611.08280322724
 31
0.0
  0
LINE
  5
19F6
330
A
100
AcDbEntity
  8
部材(ﾋﾞｽ類)
370
     5
100
AcDbLine
 10
742.679657441287
 20
611.965310181091
 30
0.0
 11
741.612990774578
 21
612.581150468264
 31
0.0
  0
LINE
  5
19F7
330
A
100
AcDbEntity
  8
部材(ﾋﾞｽ類)
370
     5
100
AcDbLine
 10
740.967059672606
 20
614.436080930322
 30
0.0
 11
735.212990774235
 21
611.055565452534
 31
0.0
  0
LINE
  5
19F8
330
A
100
AcDbEntity
  8
部材(ﾋﾞｽ類)
370
     5
100
AcDbLine
 10
741.612990774578
 20
616.368388243151
 30
0.0
 11
735.858921876221
 21
612.987872765359
 31
0.0
  0
LINE
  5
19F9
330
A
100
AcDbEntity
  8
部材(ﾋﾞｽ類)
370
     5
100
AcDbLine
 10
741.612990774578
 20
611.08280322724
 30
0.0
 11
735.212990774235
 21
607.322803227045
 31
0.0
  0
LINE
  5
19FA
330
A
100
AcDbEntity
  8
部材(ﾋﾞｽ類)
370
     5
100
AcDbLine
 10
735.212990774235
 20
608.821150468066
 30
0.0
 11
741.612990774578
 21
612.581150468264
 31
0.0
  0
LINE
  5
19FB
330
A
100
AcDbEntity
  8
部材(ﾋﾞｽ類)
370
     5
100
AcDbLine
 10
735.212990774235
 20
607.322803227045
 30
0.0
 11
735.212990774235
 21
605.251024466474
 31
0.0
  0
LINE
  5
19FC
330
A
100
AcDbEntity
  8
部材(ﾋﾞｽ類)
370
     5
100
AcDbLine
 10
735.212990774235
 20
603.535565452159
 30
0.0
 11
735.212990774235
 21
601.301150467691
 31
0.0
  0
LINE
  5
19FD
330
A
100
AcDbEntity
  8
部材(ﾋﾞｽ類)
370
     5
100
AcDbLine
 10
741.612990774578
 20
611.08280322724
 30
0.0
 11
741.612990774578
 21
608.848388242775
 31
0.0
  0
LINE
  5
19FE
330
A
100
AcDbEntity
  8
部材(ﾋﾞｽ類)
370
     5
100
AcDbLine
 10
741.612990774578
 20
607.132929228457
 30
0.0
 11
741.612990774578
 21
605.061150467867
 31
0.0
  0
LINE
  5
19FF
330
A
100
AcDbEntity
  8
部材(ﾋﾞｽ類)
370
     5
100
AcDbLine
 10
744.012990774689
 20
607.938643514219
 30
0.0
 11
732.812990774139
 21
604.178643514038
 31
0.0
  0
LINE
  5
1A00
330
A
100
AcDbEntity
  8
部材(ﾋﾞｽ類)
370
     5
100
AcDbLine
 10
744.012990774689
 20
608.205310180892
 30
0.0
 11
732.812990774139
 21
604.445310180716
 31
0.0
  0
LINE
  5
1A01
330
A
100
AcDbEntity
  8
部材(ﾋﾞｽ類)
370
     5
100
AcDbLine
 10
742.679657441287
 20
604.178643514038
 30
0.0
 11
734.14632410754
 21
600.418643513844
 31
0.0
  0
LINE
  5
1A02
330
A
100
AcDbEntity
  8
部材(ﾋﾞｽ類)
370
     5
100
AcDbLine
 10
742.679657441287
 20
604.445310180716
 30
0.0
 11
734.14632410754
 21
600.685310180517
 31
0.0
  0
LINE
  5
1A03
330
A
100
AcDbEntity
  8
部材(ﾋﾞｽ類)
370
     5
100
AcDbLine
 10
732.812990774139
 20
604.445310180716
 30
0.0
 11
732.812990774139
 21
604.178643514038
 31
0.0
  0
LINE
  5
1A04
330
A
100
AcDbEntity
  8
部材(ﾋﾞｽ類)
370
     5
100
AcDbLine
 10
732.812990774139
 20
604.178643514038
 30
0.0
 11
735.212990774235
 21
603.535565452159
 31
0.0
  0
LINE
  5
1A05
330
A
100
AcDbEntity
  8
部材(ﾋﾞｽ類)
370
     5
100
AcDbLine
 10
734.14632410754
 20
600.685310180517
 30
0.0
 11
734.14632410754
 21
600.418643513844
 31
0.0
  0
LINE
  5
1A06
330
A
100
AcDbEntity
  8
部材(ﾋﾞｽ類)
370
     5
100
AcDbLine
 10
734.14632410754
 20
600.418643513844
 30
0.0
 11
735.212990774235
 21
599.80280322667
 31
0.0
  0
LINE
  5
1A07
330
A
100
AcDbEntity
  8
部材(ﾋﾞｽ類)
370
     5
100
AcDbLine
 10
734.14632410754
 20
600.685310180517
 30
0.0
 11
735.212990774235
 21
601.301150467691
 31
0.0
  0
LINE
  5
1A08
330
A
100
AcDbEntity
  8
部材(ﾋﾞｽ類)
370
     5
100
AcDbLine
 10
744.012990774689
 20
608.205310180892
 30
0.0
 11
744.012990774689
 21
607.938643514219
 31
0.0
  0
LINE
  5
1A09
330
A
100
AcDbEntity
  8
部材(ﾋﾞｽ類)
370
     5
100
AcDbLine
 10
744.012990774689
 20
608.205310180892
 30
0.0
 11
741.612990774578
 21
608.848388242775
 31
0.0
  0
LINE
  5
1A0A
330
A
100
AcDbEntity
  8
部材(ﾋﾞｽ類)
370
     5
100
AcDbLine
 10
742.679657441287
 20
604.445310180716
 30
0.0
 11
742.679657441287
 21
604.178643514038
 31
0.0
  0
LINE
  5
1A0B
330
A
100
AcDbEntity
  8
部材(ﾋﾞｽ類)
370
     5
100
AcDbLine
 10
742.679657441287
 20
604.178643514038
 30
0.0
 11
741.612990774578
 21
603.562803226865
 31
0.0
  0
LINE
  5
1A0C
330
A
100
AcDbEntity
  8
部材(ﾋﾞｽ類)
370
     5
100
AcDbLine
 10
742.679657441287
 20
604.445310180716
 30
0.0
 11
741.612990774578
 21
605.061150467867
 31
0.0
  0
LINE
  5
1A0D
330
A
100
AcDbEntity
  8
部材(ﾋﾞｽ類)
370
     5
100
AcDbLine
 10
740.967059672606
 20
606.916080929946
 30
0.0
 11
735.212990774235
 21
603.535565452159
 31
0.0
  0
LINE
  5
1A0E
330
A
100
AcDbEntity
  8
部材(ﾋﾞｽ類)
370
     5
100
AcDbLine
 10
741.612990774578
 20
608.848388242775
 30
0.0
 11
735.858921876221
 21
605.467872764984
 31
0.0
  0
LINE
  5
1A0F
330
A
100
AcDbEntity
  8
部材(ﾋﾞｽ類)
370
     5
100
AcDbLine
 10
741.612990774578
 20
603.562803226865
 30
0.0
 11
735.212990774235
 21
599.80280322667
 31
0.0
  0
LINE
  5
1A10
330
A
100
AcDbEntity
  8
部材(ﾋﾞｽ類)
370
     5
100
AcDbLine
 10
735.212990774235
 20
601.301150467691
 30
0.0
 11
741.612990774578
 21
605.061150467867
 31
0.0
  0
LINE
  5
1A11
330
A
100
AcDbEntity
  8
部材(ﾋﾞｽ類)
370
     5
100
AcDbLine
 10
735.212990774235
 20
599.80280322667
 30
0.0
 11
735.212990774235
 21
597.731024466098
 31
0.0
  0
LINE
  5
1A12
330
A
100
AcDbEntity
  8
部材(ﾋﾞｽ類)
370
     5
100
AcDbLine
 10
735.212990774235
 20
596.015565451784
 30
0.0
 11
735.212990774235
 21
593.781150467315
 31
0.0
  0
LINE
  5
1A13
330
A
100
AcDbEntity
  8
部材(ﾋﾞｽ類)
370
     5
100
AcDbLine
 10
741.612990774578
 20
603.562803226865
 30
0.0
 11
741.612990774578
 21
601.3283882424
 31
0.0
  0
LINE
  5
1A14
330
A
100
AcDbEntity
  8
部材(ﾋﾞｽ類)
370
     5
100
AcDbLine
 10
741.612990774578
 20
599.612929228082
 30
0.0
 11
741.612990774578
 21
597.541150467492
 31
0.0
  0
LINE
  5
1A15
330
A
100
AcDbEntity
  8
部材(ﾋﾞｽ類)
370
     5
100
AcDbLine
 10
744.012990774689
 20
600.418643513844
 30
0.0
 11
732.812990774139
 21
596.658643513663
 31
0.0
  0
LINE
  5
1A16
330
A
100
AcDbEntity
  8
部材(ﾋﾞｽ類)
370
     5
100
AcDbLine
 10
744.012990774689
 20
600.685310180517
 30
0.0
 11
732.812990774139
 21
596.925310180341
 31
0.0
  0
LINE
  5
1A17
330
A
100
AcDbEntity
  8
部材(ﾋﾞｽ類)
370
     5
100
AcDbLine
 10
742.679657441215
 20
596.658643513616
 30
0.0
 11
734.14632410754
 21
592.898643513468
 31
0.0
  0
LINE
  5
1A18
330
A
100
AcDbEntity
  8
部材(ﾋﾞｽ類)
370
     5
100
AcDbLine
 10
742.679657441287
 20
596.925310180341
 30
0.0
 11
734.14632410754
 21
593.165310180142
 31
0.0
  0
LINE
  5
1A19
330
A
100
AcDbEntity
  8
部材(ﾋﾞｽ類)
370
     5
100
AcDbLine
 10
732.812990774139
 20
596.925310180341
 30
0.0
 11
732.812990774139
 21
596.658643513663
 31
0.0
  0
LINE
  5
1A1A
330
A
100
AcDbEntity
  8
部材(ﾋﾞｽ類)
370
     5
100
AcDbLine
 10
732.812990774139
 20
596.658643513663
 30
0.0
 11
735.212990774235
 21
596.015565451784
 31
0.0
  0
LINE
  5
1A1B
330
A
100
AcDbEntity
  8
部材(ﾋﾞｽ類)
370
     5
100
AcDbLine
 10
734.14632410754
 20
593.165310180142
 30
0.0
 11
734.14632410754
 21
592.898643513468
 31
0.0
  0
LINE
  5
1A1C
330
A
100
AcDbEntity
  8
部材(ﾋﾞｽ類)
370
     5
100
AcDbLine
 10
734.14632410754
 20
592.898643513468
 30
0.0
 11
735.212990774235
 21
592.282803226295
 31
0.0
  0
LINE
  5
1A1D
330
A
100
AcDbEntity
  8
部材(ﾋﾞｽ類)
370
     5
100
AcDbLine
 10
734.14632410754
 20
593.165310180142
 30
0.0
 11
735.212990774235
 21
593.781150467315
 31
0.0
  0
LINE
  5
1A1E
330
A
100
AcDbEntity
  8
部材(ﾋﾞｽ類)
370
     5
100
AcDbLine
 10
744.012990774689
 20
600.685310180517
 30
0.0
 11
744.012990774689
 21
600.418643513844
 31
0.0
  0
LINE
  5
1A1F
330
A
100
AcDbEntity
  8
部材(ﾋﾞｽ類)
370
     5
100
AcDbLine
 10
744.012990774689
 20
600.685310180517
 30
0.0
 11
741.612990774578
 21
601.3283882424
 31
0.0
  0
LINE
  5
1A20
330
A
100
AcDbEntity
  8
部材(ﾋﾞｽ類)
370
     5
100
AcDbLine
 10
742.679657441287
 20
596.925310180341
 30
0.0
 11
742.679657441287
 21
596.658643513663
 31
0.0
  0
LINE
  5
1A21
330
A
100
AcDbEntity
  8
部材(ﾋﾞｽ類)
370
     5
100
AcDbLine
 10
742.679657441287
 20
596.658643513663
 30
0.0
 11
741.612990774578
 21
596.04280322649
 31
0.0
  0
LINE
  5
1A22
330
A
100
AcDbEntity
  8
部材(ﾋﾞｽ類)
370
     5
100
AcDbLine
 10
742.679657441287
 20
596.925310180341
 30
0.0
 11
741.612990774578
 21
597.541150467492
 31
0.0
  0
LINE
  5
1A23
330
A
100
AcDbEntity
  8
部材(ﾋﾞｽ類)
370
     5
100
AcDbLine
 10
740.967059672606
 20
599.396080929571
 30
0.0
 11
735.212990774235
 21
596.015565451784
 31
0.0
  0
LINE
  5
1A24
330
A
100
AcDbEntity
  8
部材(ﾋﾞｽ類)
370
     5
100
AcDbLine
 10
741.612990774578
 20
601.3283882424
 30
0.0
 11
735.858921876221
 21
597.947872764609
 31
0.0
  0
LINE
  5
1A25
330
A
100
AcDbEntity
  8
部材(ﾋﾞｽ類)
370
     5
100
AcDbLine
 10
741.61299077468
 20
596.042803226548
 30
0.0
 11
735.212990774235
 21
592.282803226295
 31
0.0
  0
LINE
  5
1A26
330
A
100
AcDbEntity
  8
部材(ﾋﾞｽ類)
370
     5
100
AcDbLine
 10
735.212990774235
 20
593.781150467315
 30
0.0
 11
741.612990774578
 21
597.541150467492
 31
0.0
  0
LINE
  5
1A27
330
A
100
AcDbEntity
  8
部材(ﾋﾞｽ類)
370
     5
100
AcDbLine
 10
735.212990774235
 20
592.282803226295
 30
0.0
 11
735.212990774235
 21
590.211024465705
 31
0.0
  0
LINE
  5
1A28
330
A
100
AcDbEntity
  8
部材(ﾋﾞｽ類)
370
     5
100
AcDbLine
 10
735.212990774235
 20
588.495565451409
 30
0.0
 11
735.212990774235
 21
586.26115046694
 31
0.0
  0
LINE
  5
1A29
330
A
100
AcDbEntity
  8
部材(ﾋﾞｽ類)
370
     5
100
AcDbLine
 10
741.612990774578
 20
596.04280322649
 30
0.0
 11
741.612990774578
 21
593.808388242003
 31
0.0
  0
LINE
  5
1A2A
330
A
100
AcDbEntity
  8
部材(ﾋﾞｽ類)
370
     5
100
AcDbLine
 10
741.612990774578
 20
592.092929227707
 30
0.0
 11
741.612990774578
 21
590.021150467117
 31
0.0
  0
LINE
  5
1A2B
330
A
100
AcDbEntity
  8
部材(ﾋﾞｽ類)
370
     5
100
AcDbLine
 10
744.012990774689
 20
592.898643513461
 30
0.0
 11
732.812990774139
 21
589.138643513288
 31
0.0
  0
LINE
  5
1A2C
330
A
100
AcDbEntity
  8
部材(ﾋﾞｽ類)
370
     5
100
AcDbLine
 10
744.012990774689
 20
593.165310180142
 30
0.0
 11
732.812990774139
 21
589.405310179965
 31
0.0
  0
LINE
  5
1A2D
330
A
100
AcDbEntity
  8
部材(ﾋﾞｽ類)
370
     5
100
AcDbLine
 10
742.679657441287
 20
589.138643513299
 30
0.0
 11
734.14632410754
 21
585.378643513093
 31
0.0
  0
LINE
  5
1A2E
330
A
100
AcDbEntity
  8
部材(ﾋﾞｽ類)
370
     5
100
AcDbLine
 10
742.679657441287
 20
589.405310179962
 30
0.0
 11
734.14632410754
 21
585.645310179767
 31
0.0
  0
LINE
  5
1A2F
330
A
100
AcDbEntity
  8
部材(ﾋﾞｽ類)
370
     5
100
AcDbLine
 10
732.812990774139
 20
589.405310179965
 30
0.0
 11
732.812990774139
 21
589.138643513288
 31
0.0
  0
LINE
  5
1A30
330
A
100
AcDbEntity
  8
部材(ﾋﾞｽ類)
370
     5
100
AcDbLine
 10
732.812990774139
 20
589.138643513288
 30
0.0
 11
735.212990774235
 21
588.495565451409
 31
0.0
  0
LINE
  5
1A31
330
A
100
AcDbEntity
  8
部材(ﾋﾞｽ類)
370
     5
100
AcDbLine
 10
734.14632410754
 20
585.645310179767
 30
0.0
 11
734.14632410754
 21
585.378643513093
 31
0.0
  0
LINE
  5
1A32
330
A
100
AcDbEntity
  8
部材(ﾋﾞｽ類)
370
     5
100
AcDbLine
 10
734.14632410754
 20
585.378643513093
 30
0.0
 11
735.212990774235
 21
584.76280322592
 31
0.0
  0
LINE
  5
1A33
330
A
100
AcDbEntity
  8
部材(ﾋﾞｽ類)
370
     5
100
AcDbLine
 10
734.14632410754
 20
585.645310179767
 30
0.0
 11
735.212990774235
 21
586.26115046694
 31
0.0
  0
LINE
  5
1A34
330
A
100
AcDbEntity
  8
部材(ﾋﾞｽ類)
370
     5
100
AcDbLine
 10
744.012990774689
 20
593.165310180142
 30
0.0
 11
744.012990774689
 21
592.898643513468
 31
0.0
  0
LINE
  5
1A35
330
A
100
AcDbEntity
  8
部材(ﾋﾞｽ類)
370
     5
100
AcDbLine
 10
744.012990774689
 20
593.165310180142
 30
0.0
 11
741.612990774578
 21
593.808388242003
 31
0.0
  0
LINE
  5
1A36
330
A
100
AcDbEntity
  8
部材(ﾋﾞｽ類)
370
     5
100
AcDbLine
 10
742.679657441287
 20
589.405310179965
 30
0.0
 11
742.679657441287
 21
589.138643513288
 31
0.0
  0
LINE
  5
1A37
330
A
100
AcDbEntity
  8
部材(ﾋﾞｽ類)
370
     5
100
AcDbLine
 10
742.679657441287
 20
589.138643513288
 30
0.0
 11
741.612990774578
 21
588.522803226115
 31
0.0
  0
LINE
  5
1A38
330
A
100
AcDbEntity
  8
部材(ﾋﾞｽ類)
370
     5
100
AcDbLine
 10
742.679657441287
 20
589.405310179965
 30
0.0
 11
741.612990774578
 21
590.021150467117
 31
0.0
  0
LINE
  5
1A39
330
A
100
AcDbEntity
  8
部材(ﾋﾞｽ類)
370
     5
100
AcDbLine
 10
740.967059672621
 20
591.876080929203
 30
0.0
 11
735.212990774235
 21
588.495565451409
 31
0.0
  0
LINE
  5
1A3A
330
A
100
AcDbEntity
  8
部材(ﾋﾞｽ類)
370
     5
100
AcDbLine
 10
741.612990774564
 20
593.808388242011
 30
0.0
 11
735.858921876221
 21
590.427872764234
 31
0.0
  0
LINE
  5
1A3B
330
A
100
AcDbEntity
  8
部材(ﾋﾞｽ類)
370
     5
100
AcDbLine
 10
741.612990774054
 20
588.52280322582
 30
0.0
 11
735.212990774235
 21
584.76280322592
 31
0.0
  0
LINE
  5
1A3C
330
A
100
AcDbEntity
  8
部材(ﾋﾞｽ類)
370
     5
100
AcDbLine
 10
735.212990774235
 20
586.26115046694
 30
0.0
 11
741.612990774578
 21
590.021150467117
 31
0.0
  0
LINE
  5
1A3D
330
A
100
AcDbEntity
  8
部材(ﾋﾞｽ類)
370
     5
100
AcDbLine
 10
735.212990774235
 20
584.479577391437
 30
0.0
 11
735.642537024032
 21
582.542019469889
 31
0.0
  0
LINE
  5
1A3E
330
A
100
AcDbEntity
  8
部材(ﾋﾞｽ類)
370
     5
100
AcDbLine
 10
735.972040194014
 20
581.055726719023
 30
0.0
 11
736.472485497128
 21
578.798363834714
 31
0.0
  0
LINE
  5
1A3F
330
A
100
AcDbEntity
  8
部材(ﾋﾞｽ類)
370
     5
100
AcDbLine
 10
741.612990774578
 20
588.522803226115
 30
0.0
 11
741.612990774578
 21
586.288388241628
 31
0.0
  0
LINE
  5
1A40
330
A
100
AcDbEntity
  8
部材(ﾋﾞｽ類)
370
     5
100
AcDbLine
 10
741.612990774578
 20
584.479577391437
 30
0.0
 11
741.132665946658
 21
582.312972105632
 31
0.0
  0
LINE
  5
1A41
330
A
100
AcDbEntity
  8
部材(ﾋﾞｽ類)
370
     5
100
AcDbLine
 10
744.012990774689
 20
585.378643513097
 30
0.0
 11
733.871206118842
 21
581.618643512895
 31
0.0
  0
LINE
  5
1A42
330
A
100
AcDbEntity
  8
部材(ﾋﾞｽ類)
370
     5
100
AcDbLine
 10
744.012990774689
 20
585.645310179763
 30
0.0
 11
733.871206118842
 21
581.88531017959
 31
0.0
  0
LINE
  5
1A43
330
A
100
AcDbEntity
  8
部材(ﾋﾞｽ類)
370
     5
100
AcDbLine
 10
741.873398131051
 20
581.618643512913
 30
0.0
 11
735.329956999107
 21
577.858643512718
 31
0.0
  0
LINE
  5
1A44
330
A
100
AcDbEntity
  8
部材(ﾋﾞｽ類)
370
     5
100
AcDbLine
 10
741.873398131036
 20
581.885310179601
 30
0.0
 11
735.329956999107
 21
578.125310179392
 31
0.0
  0
LINE
  5
1A45
330
A
100
AcDbEntity
  8
部材(ﾋﾞｽ類)
370
     5
100
AcDbLine
 10
733.871206118842
 20
581.88531017959
 30
0.0
 11
733.871206118842
 21
581.618643512895
 31
0.0
  0
LINE
  5
1A46
330
A
100
AcDbEntity
  8
部材(ﾋﾞｽ類)
370
     5
100
AcDbLine
 10
733.871206118842
 20
581.618643512895
 30
0.0
 11
735.972040194014
 21
581.055726719023
 31
0.0
  0
LINE
  5
1A47
330
A
100
AcDbEntity
  8
部材(ﾋﾞｽ類)
370
     5
100
AcDbLine
 10
735.329956999107
 20
578.125310179392
 30
0.0
 11
735.329956999107
 21
577.858643512718
 31
0.0
  0
LINE
  5
1A48
330
A
100
AcDbEntity
  8
部材(ﾋﾞｽ類)
370
     5
100
AcDbLine
 10
735.329956999107
 20
577.858643512718
 30
0.0
 11
736.873328177826
 21
576.990279346206
 31
0.0
  0
LINE
  5
1A49
330
A
100
AcDbEntity
  8
部材(ﾋﾞｽ類)
370
     5
100
AcDbLine
 10
735.329956999107
 20
578.125310179392
 30
0.0
 11
736.472485497128
 21
578.798363834714
 31
0.0
  0
LINE
  5
1A4A
330
A
100
AcDbEntity
  8
部材(ﾋﾞｽ類)
370
     5
100
AcDbLine
 10
744.012990774689
 20
585.645310179767
 30
0.0
 11
744.012990774689
 21
585.378643513093
 31
0.0
  0
LINE
  5
1A4B
330
A
100
AcDbEntity
  8
部材(ﾋﾞｽ類)
370
     5
100
AcDbLine
 10
744.012990774689
 20
585.645310179767
 30
0.0
 11
741.612990774578
 21
586.288388241628
 31
0.0
  0
LINE
  5
1A4C
330
A
100
AcDbEntity
  8
部材(ﾋﾞｽ類)
370
     5
100
AcDbLine
 10
741.873398131051
 20
581.88531017959
 30
0.0
 11
741.873398131051
 21
581.618643512895
 31
0.0
  0
LINE
  5
1A4D
330
A
100
AcDbEntity
  8
部材(ﾋﾞｽ類)
370
     5
100
AcDbLine
 10
741.873398131051
 20
581.618643512895
 30
0.0
 11
740.847415925702
 21
581.026292410479
 31
0.0
  0
LINE
  5
1A4E
330
A
100
AcDbEntity
  8
部材(ﾋﾞｽ類)
370
     5
100
AcDbLine
 10
741.873398131051
 20
581.88531017959
 30
0.0
 11
741.132665946658
 21
582.312972105632
 31
0.0
  0
LINE
  5
1A4F
330
A
100
AcDbEntity
  8
部材(ﾋﾞｽ類)
370
     5
100
AcDbLine
 10
740.736904483972
 20
584.164056054204
 30
0.0
 11
735.972040194014
 21
581.055726719023
 31
0.0
  0
LINE
  5
1A50
330
A
100
AcDbEntity
  8
部材(ﾋﾞｽ類)
370
     5
100
AcDbLine
 10
741.612990774564
 20
586.288388241635
 30
0.0
 11
736.322584725654
 21
582.794142685387
 31
0.0
  0
LINE
  5
1A51
330
A
100
AcDbEntity
  8
部材(ﾋﾞｽ類)
370
     5
100
AcDbLine
 10
740.847415925804
 20
581.02629241053
 30
0.0
 11
736.873328177826
 21
576.990279346206
 31
0.0
  0
LINE
  5
1A52
330
A
100
AcDbEntity
  8
部材(ﾋﾞｽ類)
370
     5
100
AcDbLine
 10
736.472485497128
 20
578.798363834714
 30
0.0
 11
741.132665946629
 21
582.312972105639
 31
0.0
  0
LINE
  5
1A53
330
A
100
AcDbEntity
  8
部材(ﾋﾞｽ類)
370
     5
100
AcDbLine
 10
736.873328177826
 20
576.990279346206
 30
0.0
 11
737.354992173408
 21
574.817633465431
 31
0.0
  0
LINE
  5
1A54
330
A
100
AcDbEntity
  8
部材(ﾋﾞｽ類)
370
     5
100
AcDbLine
 10
737.560218373692
 20
573.891917898614
 30
0.0
 11
738.28861815398
 21
570.606318815648
 31
0.0
  0
LINE
  5
1A55
330
A
100
AcDbEntity
  8
部材(ﾋﾞｽ類)
370
     5
100
AcDbLine
 10
740.847415925702
 20
581.026292410479
 30
0.0
 11
740.276714225038
 21
578.45202339621
 31
0.0
  0
LINE
  5
1A56
330
A
100
AcDbEntity
  8
部材(ﾋﾞｽ類)
370
     5
100
AcDbLine
 10
739.85448031596
 20
576.547449311962
 30
0.0
 11
739.402464245461
 21
574.508536578967
 31
0.0
  0
LINE
  5
1A57
330
A
100
AcDbEntity
  8
部材(ﾋﾞｽ類)
370
     5
100
AcDbLine
 10
741.49602454972
 20
577.858643512725
 30
0.0
 11
736.788707879372
 21
574.09864351252
 31
0.0
  0
LINE
  5
1A58
330
A
100
AcDbEntity
  8
部材(ﾋﾞｽ類)
370
     5
100
AcDbLine
 10
741.49602454972
 20
578.125310179326
 30
0.0
 11
736.788707879372
 21
574.365310179215
 31
0.0
  0
LINE
  5
1A59
330
A
100
AcDbEntity
  8
部材(ﾋﾞｽ類)
370
     5
100
AcDbLine
 10
739.650539646813
 20
574.098643511519
 30
0.0
 11
738.286871144097
 21
570.338643512343
 31
0.0
  0
LINE
  5
1A5A
330
A
100
AcDbEntity
  8
部材(ﾋﾞｽ類)
370
     5
100
AcDbLine
 10
739.650539646813
 20
574.365310178717
 30
0.0
 11
738.286871144097
 21
570.605310179017
 31
0.0
  0
LINE
  5
1A5B
330
A
100
AcDbEntity
  8
部材(ﾋﾞｽ類)
370
     5
100
AcDbLine
 10
736.788707879372
 20
574.365310179215
 30
0.0
 11
736.788707879372
 21
574.09864351252
 31
0.0
  0
LINE
  5
1A5C
330
A
100
AcDbEntity
  8
部材(ﾋﾞｽ類)
370
     5
100
AcDbLine
 10
736.788707879372
 20
574.09864351252
 30
0.0
 11
737.560218373692
 21
573.891917898614
 31
0.0
  0
LINE
  5
1A5D
330
A
100
AcDbEntity
  8
部材(ﾋﾞｽ類)
370
     5
100
AcDbLine
 10
738.286871144097
 20
570.605310179017
 30
0.0
 11
738.286871144097
 21
570.338643512343
 31
0.0
  0
LINE
  5
1A5E
330
A
100
AcDbEntity
  8
部材(ﾋﾞｽ類)
370
     5
100
AcDbLine
 10
738.286871144097
 20
570.338643512343
 30
0.0
 11
738.412990774421
 21
570.04531017899
 31
0.0
  0
LINE
  5
1A5F
330
A
100
AcDbEntity
  8
部材(ﾋﾞｽ類)
370
     5
100
AcDbLine
 10
738.286871144097
 20
570.605310179017
 30
0.0
 11
738.28861815398
 21
570.606318815648
 31
0.0
  0
LINE
  5
1A60
330
A
100
AcDbEntity
  8
部材(ﾋﾞｽ類)
370
     5
100
AcDbLine
 10
741.49602454972
 20
578.125310179392
 30
0.0
 11
741.49602454972
 21
577.858643512718
 31
0.0
  0
LINE
  5
1A61
330
A
100
AcDbEntity
  8
部材(ﾋﾞｽ類)
370
     5
100
AcDbLine
 10
741.49602454972
 20
578.125310179392
 30
0.0
 11
740.276714225038
 21
578.45202339621
 31
0.0
  0
LINE
  5
1A62
330
A
100
AcDbEntity
  8
部材(ﾋﾞｽ類)
370
     5
100
AcDbLine
 10
739.650539646813
 20
574.365310179215
 30
0.0
 11
739.650539646813
 21
574.09864351252
 31
0.0
  0
LINE
  5
1A63
330
A
100
AcDbEntity
  8
部材(ﾋﾞｽ類)
370
     5
100
AcDbLine
 10
739.650539646813
 20
574.365310179215
 30
0.0
 11
739.402464245461
 21
574.508536578967
 31
0.0
  0
LINE
  5
1A64
330
A
100
AcDbEntity
  8
部材(ﾋﾞｽ類)
370
     5
100
AcDbLine
 10
738.857845490871
 20
575.751380722384
 30
0.0
 11
737.560218373692
 21
573.891917898614
 31
0.0
  0
LINE
  5
1A65
330
A
100
AcDbEntity
  8
部材(ﾋﾞｽ類)
370
     5
100
AcDbLine
 10
738.552495121519
 20
571.071040097624
 30
0.0
 11
738.356927197776
 21
570.298196630902
 31
0.0
  0
LINE
  5
1A66
330
A
100
AcDbEntity
  8
部材(ﾋﾞｽ類)
370
     5
100
AcDbLine
 10
738.28861815398
 20
570.606318815648
 30
0.0
 11
739.402464245315
 21
574.508536579044
 31
0.0
  0
LINE
  5
1A67
330
A
100
AcDbEntity
  8
部材(ﾋﾞｽ類)
370
     5
100
AcDbLine
 10
738.356927197776
 20
570.298196630902
 30
0.0
 11
738.412990774421
 21
570.04531017899
 31
0.0
  0
LINE
  5
1A68
330
A
100
AcDbEntity
  8
部材(ﾋﾞｽ類)
370
     5
100
AcDbLine
 10
738.77860290902
 20
571.694479943631
 30
0.0
 11
738.412990774421
 21
570.04531017899
 31
0.0
  0
LINE
  5
1A69
330
A
100
AcDbEntity
  8
部材(ﾋﾞｽ類)
370
     5
100
AcDbLine
 10
735.212990774235
 20
584.479577391437
 30
0.0
 11
735.212990774235
 21
584.76280322592
 31
0.0
  0
LINE
  5
1A6A
330
A
100
AcDbEntity
  8
部材(ﾋﾞｽ類)
370
     5
100
AcDbLine
 10
741.612990774578
 20
584.479577391437
 30
0.0
 11
741.612990774578
 21
584.488859288016
 31
0.0
  0
LINE
  5
1A6B
330
A
100
AcDbEntity
  8
部材(ﾋﾞｽ類)
370
     5
100
AcDbLine
 10
744.012990774689
 20
592.898643513468
 30
0.0
 11
741.612990774578
 21
592.092929227707
 31
0.0
  0
LINE
  5
1A6C
330
A
100
AcDbEntity
  8
部材(ﾋﾞｽ類)
370
     5
100
AcDbLine
 10
744.012990774689
 20
585.378643513093
 30
0.0
 11
741.612990774578
 21
584.488859288016
 31
0.0
  0
LINE
  5
1A6D
330
A
100
AcDbEntity
  8
部材(ﾋﾞｽ類)
370
     5
100
AcDbLine
 10
741.49602454972
 20
577.858643512718
 30
0.0
 11
739.85448031596
 21
576.547449311962
 31
0.0
  0
LINE
  5
1A6E
330
A
100
AcDbEntity
  8
部材(ﾋﾞｽ類)
370
     5
100
AcDbLine
 10
744.012990774689
 20
630.765310182018
 30
0.0
 11
744.012990774689
 21
630.498643515344
 31
0.0
  0
LINE
  5
1A6F
330
A
100
AcDbEntity
  8
部材(ﾋﾞｽ類)
100
AcDbLine
 10
734.50632410754
 20
717.534704803787
 30
0.0
 11
742.319657441287
 21
717.534704803787
 31
0.0
  0
LINE
  5
1A70
330
A
100
AcDbEntity
  8
IBリキッド
100
AcDbLine
 10
603.746314569958
 20
730.711111108172
 30
0.0
 11
603.746314569958
 21
744.044444442174
 31
0.0
  0
LINE
  5
1A71
330
A
100
AcDbEntity
  8
IBリキッド
100
AcDbLine
 10
603.746314569958
 20
730.711111108172
 30
0.0
 11
585.079647902356
 21
730.711111108172
 31
0.0
  0
LINE
  5
1A72
330
A
100
AcDbEntity
  8
IBｼｰﾄ
100
AcDbLine
 10
606.412981236761
 20
730.711111108172
 30
0.0
 11
606.412981236761
 21
744.044444442174
 31
0.0
  0
ARC
  5
1A73
330
A
100
AcDbEntity
  8
IBリキッド
100
AcDbCircle
 10
603.746314569958
 20
724.311111107851
 30
0.0
 40
19.73333333432125
100
AcDbArc
 50
90.0
 51
161.075355583949
  0
LINE
  5
1A74
330
A
100
AcDbEntity
  8
寸法線
100
AcDbLine
 10
1036.635203479615
 20
690.0000000048
 30
0.0
 11
1121.970397109544
 21
837.806585288954
 31
0.0
  0
LINE
  5
1A75
330
A
100
AcDbEntity
  8
寸法線
100
AcDbLine
 10
1106.573484367022
 20
811.13804444917
 30
0.0
 11
1118.573484367022
 21
811.13804444917
 31
0.0
  0
TEXT
  5
1A76
330
A
100
AcDbEntity
  8
文字
100
AcDbText
 10
1123.114063182744
 20
807.29955604265
 30
0.0
 40
12.0
  1
GCシート
  7
基本スタイル
100
AcDbText
1001
AcadAnnotative
1000
AnnotativeData
1002
{
1070
     1
1070
     0
1002
}
  0
LWPOLYLINE
  5
1A77
330
A
100
AcDbEntity
  8
寸法線
100
AcDbPolyline
 90
        3
 70
     0
 43
0.0
 10
1040.877823108516
 20
694.242661750008
 10
1036.635203479615
 20
690.0000000048
 10
1038.188088984229
 20
695.795562670277
  0
LINE
  5
1A78
330
A
100
AcDbEntity
  8
寸法線
100
AcDbLine
 10
1091.176571624484
 20
784.469503609385
 30
0.0
 11
1103.176571624484
 21
784.469503609385
 31
0.0
  0
TEXT
  5
1A79
330
A
100
AcDbEntity
  8
文字
100
AcDbText
 10
1107.717150440221
 20
780.631015202865
 30
0.0
 40
12.0
  1
下地(CLT)
  7
基本スタイル
100
AcDbText
1001
AcadAnnotative
1000
AnnotativeData
1002
{
1070
     1
1070
     0
1002
}
  0
LINE
  5
1A7A
330
A
100
AcDbEntity
  8
寸法線
100
AcDbLine
 10
1121.970397109544
 20
837.806585288954
 30
0.0
 11
1133.970397109544
 21
837.806585288954
 31
0.0
  0
TEXT
  5
1A7B
330
A
100
AcDbEntity
  8
文字
100
AcDbText
 10
1138.510975925281
 20
833.968096882434
 30
0.0
 40
12.0
  1
サンタックIB-HWCシート
  7
基本スタイル
100
AcDbText
1001
AcadAnnotative
1000
AnnotativeData
1002
{
1070
     1
1070
     0
1002
}
  0
LINE
  5
1A7C
330
A
100
AcDbEntity
  8
寸法線
100
AcDbLine
 10
672.880647336133
 20
712.666666664596
 30
0.0
 11
742.81892822354
 21
833.804711108965
 31
0.0
  0
LINE
  5
1A7D
330
A
100
AcDbEntity
  8
寸法線
100
AcDbLine
 10
742.81892822354
 20
833.804711108965
 30
0.0
 11
754.81892822354
 21
833.804711108965
 31
0.0
  0
TEXT
  5
1A7E
330
A
100
AcDbEntity
  8
文字
100
AcDbText
 10
759.359507039262
 20
829.966222702446
 30
0.0
 40
12.0
  1
IB積層鋼鈑♯18
  7
基本スタイル
100
AcDbText
1001
AcadAnnotative
1000
AnnotativeData
1002
{
1070
     1
1070
     0
1002
}
  0
LWPOLYLINE
  5
1A7F
330
A
100
AcDbEntity
  8
寸法線
100
AcDbPolyline
 90
        3
 70
     0
 43
0.0
 10
677.123266965034
 20
716.909328409803
 10
672.880647336133
 20
712.666666664596
 10
674.433532840747
 20
718.462229330073
  0
LINE
  5
1A80
330
A
100
AcDbEntity
  8
寸法線
100
AcDbLine
 10
727.422015481003
 20
807.136170269181
 30
0.0
 11
739.422015481003
 21
807.136170269181
 31
0.0
  0
TEXT
  5
1A81
330
A
100
AcDbEntity
  8
文字
100
AcDbText
 10
743.96259429674
 20
803.297681862661
 30
0.0
 40
12.0
  1
サンタックシーラーTM-104
  7
基本スタイル
100
AcDbText
1001
AcadAnnotative
1000
AnnotativeData
1002
{
1070
     1
1070
     0
1002
}
  0
LINE
  5
1A82
330
A
100
AcDbEntity
  8
寸法線
100
AcDbLine
 10
608.190759012854
 20
569.999999998799
 30
0.0
 11
540.10242572111
 21
452.066195510288
 31
0.0
  0
LINE
  5
1A83
330
A
100
AcDbEntity
  8
寸法線
100
AcDbLine
 10
540.102425721154
 20
452.066195510288
 30
0.0
 11
528.102425721154
 21
452.066195510288
 31
0.0
  0
TEXT
  5
1A84
330
A
100
AcDbEntity
  8
文字
100
AcDbText
 10
429.926733737979
 20
448.227707103768
 30
0.0
 40
12.0
  1
GL鋼板(別途)
  7
基本スタイル
 72
     2
 11
523.561846905417
 21
448.227707103768
 31
0.0
100
AcDbText
1001
AcadAnnotative
1000
AnnotativeData
1002
{
1070
     1
1070
     0
1002
}
  0
LWPOLYLINE
  5
1A85
330
A
100
AcDbEntity
  8
寸法線
100
AcDbPolyline
 90
        3
 70
     0
 43
0.0
 10
603.948139383952
 20
565.757338253592
 10
608.190759012854
 20
569.999999998799
 10
606.63787350824
 20
564.204437333323
  0
LINE
  5
1A86
330
A
100
AcDbEntity
  8
寸法線
100
AcDbLine
 10
589.75729607942
 20
738.229149983878
 30
0.0
 11
554.477824775327
 21
799.335687184717
 31
0.0
  0
LINE
  5
1A87
330
A
100
AcDbEntity
  8
寸法線
100
AcDbLine
 10
554.477824775371
 20
799.335687184717
 30
0.0
 11
542.477824775371
 21
799.335687184717
 31
0.0
  0
TEXT
  5
1A88
330
A
100
AcDbEntity
  8
文字
100
AcDbText
 10
459.90798498677
 20
795.497198778197
 30
0.0
 40
12.0
  1
IBリキッド
  7
基本スタイル
 72
     2
 11
537.937245959634
 21
795.497198778197
 31
0.0
100
AcDbText
1001
AcadAnnotative
1000
AnnotativeData
1002
{
1070
     1
1070
     0
1002
}
  0
LWPOLYLINE
  5
1A89
330
A
100
AcDbEntity
  8
寸法線
100
AcDbPolyline
 90
        3
 70
     0
 43
0.0
 10
585.514676450519
 20
742.471811729085
 10
589.75729607942
 20
738.229149983878
 10
588.204410574806
 20
744.024712649354
  0
LINE
  5
1A8A
330
A
100
AcDbEntity
  8
寸法線
100
AcDbLine
 10
589.328933055236
 20
664.437112547565
 30
0.0
 11
529.435759053915
 21
560.697903032727
 31
0.0
  0
LINE
  5
1A8B
330
A
100
AcDbEntity
  8
寸法線
100
AcDbLine
 10
529.435759053958
 20
560.697903032727
 30
0.0
 11
517.435759053958
 21
560.697903032727
 31
0.0
  0
TEXT
  5
1A8C
330
A
100
AcDbEntity
  8
文字
100
AcDbText
 10
372.442510487065
 20
556.859414626208
 30
0.0
 40
12.0
  1
不定形シーリング材
  7
基本スタイル
 72
     2
 11
512.895180238222
 21
556.859414626208
 31
0.0
100
AcDbText
1001
AcadAnnotative
1000
AnnotativeData
1002
{
1070
     1
1070
     0
1002
}
  0
LWPOLYLINE
  5
1A8D
330
A
100
AcDbEntity
  8
寸法線
100
AcDbPolyline
 90
        3
 70
     0
 43
0.0
 10
585.086313426335
 20
660.194450802357
 10
589.328933055236
 20
664.437112547565
 10
587.776047550622
 20
658.641549882088
  0
VIEWPORT
  5
1D
330
B
100
AcDbEntity
 67
     1
  8
0
100
AcDbViewport
 10
210.0
 20
148.5
 30
0.0
 40
420.0
 41
297.0
 68
     1
 69
     1
 12
4.5
 22
3.259162
 13
0.0
 23
0.0
 14
1.0
 24
1.0
 15
0.0
 25
0.0
 16
0.0
 26
0.0
 36
1.0
 17
0.0
 27
0.0
 37
0.0
 42
50.0
 43
0.0
 44
0.0
 45
9.311892
 50
0.0
 51
0.0
 72
   100
 90
   557216
  1

281
     0
 71
     1
 74
     0
110
0.0
120
0.0
130
0.0
111
1.0
121
0.0
131
0.0
112
0.0
122
1.0
132
0.0
 79
     0
146
0.0
170
     0
 61
     5
348
15D0
292
     0
282
     1
141
0.0
142
0.0
 63
   250
421
  3355443
  0
ENDSEC
  0
SECTION
  2
OBJECTS
  0
DICTIONARY
  5
19
330
0
100
AcDbDictionary
281
     1
  3
ACAD_COLOR
350
165E
  3
ACAD_DETAILVIEWSTYLE
350
1639
  3
ACAD_FIELDLIST
350
1B28
  3
ACAD_GROUP
350
1A
  3
ACAD_IMAGE_VARS
350
163B
  3
ACAD_LAYOUT
350
15C8
  3
ACAD_MATERIAL
350
15E4
  3
ACAD_MLEADERSTYLE
350
15EA
  3
ACAD_MLINESTYLE
350
1B
  3
ACAD_PLOTSETTINGS
350
15A3
  3
ACAD_PLOTSTYLENAME
350
15A4
  3
ACAD_SCALELIST
350
15A6
  3
ACAD_SECTIONVIEWSTYLE
350
163A
  3
ACAD_TABLESTYLE
350
15E8
  3
ACAD_VISUALSTYLE
350
15CB
  3
ACDB_RECOMPOSE_DATA
350
1B61
  3
AcDbVariableDictionary
350
15F4
  0
SUN
  5
15ED
330
15
100
AcDbSun
 90
        1
290
     0
 63
     7
421
 16777215
 40
1.0
291
     1
 91
  2455826
 92
 54000000
292
     0
 70
     2
 71
   256
280
     1
  0
DICTIONARY
  5
18BD
330
2
100
AcDbDictionary
280
     1
281
     1
  3
ACAD_LAYERSTATES
360
18BE
  0
DICTIONARY
  5
163E
330
163D
100
AcDbDictionary
280
     1
281
     1
  3
ADSK_XREC_LAYER_RECONCILED
360
163F
  0
DICTIONARY
  5
164B
330
164A
100
AcDbDictionary
280
     1
281
     1
  3
ADSK_XREC_LAYER_RECONCILED
360
164C
  0
DICTIONARY
  5
16A3
330
16A2
100
AcDbDictionary
280
     1
281
     1
  3
BDM_DATABASE
360
16A4
  0
DICTIONARY
  5
16B3
330
16B2
100
AcDbDictionary
280
     1
281
     1
  3
ACAD_SORTENTS
360
16B4
  3
BDM_DATABASE
360
16B5
  0
DICTIONARY
  5
16C4
330
16C3
100
AcDbDictionary
280
     1
281
     1
  3
ACAD_SORTENTS
360
16C5
  3
BDM_DATABASE
360
16C6
  0
DICTIONARY
  5
16D5
330
16D4
100
AcDbDictionary
280
     1
281
     1
  3
ACAD_SORTENTS
360
16D6
  3
BDM_DATABASE
360
16D7
  0
DICTIONARY
  5
16E6
330
16E5
100
AcDbDictionary
280
     1
281
     1
  3
ACAD_SORTENTS
360
16E7
  3
BDM_DATABASE
360
16E8
  0
DICTIONARY
  5
16AD
330
16AC
100
AcDbDictionary
280
     1
281
     1
  3
BDM_DATABASE
360
16AE
  0
DICTIONARY
  5
16BE
330
16BD
100
AcDbDictionary
280
     1
281
     1
  3
BDM_DATABASE
360
16BF
  0
DICTIONARY
  5
16CF
330
16CE
100
AcDbDictionary
280
     1
281
     1
  3
BDM_DATABASE
360
16D0
  0
DICTIONARY
  5
16E0
330
16DF
100
AcDbDictionary
280
     1
281
     1
  3
BDM_DATABASE
360
16E1
  0
DICTIONARY
  5
16FD
330
16FC
100
AcDbDictionary
280
     1
281
     1
  3
ACAD_SORTENTS
360
16FE
  3
BDM_DATABASE
360
16FF
  0
DICTIONARY
  5
1B29
330
18FF
100
AcDbDictionary
280
     1
281
     1
  3
ACAD_XREC_ROUNDTRIP
360
1B2A
  0
DICTIONARY
  5
1902
330
1901
100
AcDbDictionary
280
     1
281
     1
  3
AcDbContextDataManager
360
1903
  0
DICTIONARY
  5
1906
330
1905
100
AcDbDictionary
280
     1
281
     1
  3
AcDbContextDataManager
360
1907
  0
DICTIONARY
  5
190A
330
1909
100
AcDbDictionary
280
     1
281
     1
  3
AcDbContextDataManager
360
190B
  0
DICTIONARY
  5
190E
330
190D
100
AcDbDictionary
280
     1
281
     1
  3
AcDbContextDataManager
360
190F
  0
DICTIONARY
  5
1912
330
1911
100
AcDbDictionary
280
     1
281
     1
  3
AcDbContextDataManager
360
1913
  0
DICTIONARY
  5
1916
330
1915
100
AcDbDictionary
280
     1
281
     1
  3
AcDbContextDataManager
360
1917
  0
DICTIONARY
  5
191B
330
191A
100
AcDbDictionary
280
     1
281
     1
  3
AcDbContextDataManager
360
191C
  0
DICTIONARY
  5
191F
330
191E
100
AcDbDictionary
280
     1
281
     1
  3
AcDbContextDataManager
360
1920
  0
DICTIONARY
  5
1923
330
1922
100
AcDbDictionary
280
     1
281
     1
  3
AcDbContextDataManager
360
1924
  0
DICTIONARY
  5
193A
330
1939
100
AcDbDictionary
280
     1
281
     1
  3
AcDbContextDataManager
360
193B
  0
DICTIONARY
  5
165E
102
{ACAD_REACTORS
330
19
102
}
330
19
100
AcDbDictionary
281
     1
  0
DICTIONARY
  5
1639
102
{ACAD_REACTORS
330
19
102
}
330
19
100
AcDbDictionary
281
     1
  0
FIELDLIST
  5
1B28
102
{ACAD_REACTORS
330
19
102
}
330
19
100
AcDbIdSet
 90
        0
100
AcDbFieldList
  0
DICTIONARY
  5
1A
102
{ACAD_REACTORS
330
19
102
}
330
19
100
AcDbDictionary
281
     1
  0
RASTERVARIABLES
  5
163B
102
{ACAD_REACTORS
330
19
102
}
330
19
100
AcDbRasterVariables
 90
        0
 70
     1
 71
     1
 72
     0
  0
DICTIONARY
  5
15C8
102
{ACAD_REACTORS
330
19
102
}
330
19
100
AcDbDictionary
281
     1
  3
Model
350
15C9
  3
レイアウト1
350
15CA
  0
DICTIONARY
  5
15E4
102
{ACAD_REACTORS
330
19
102
}
330
19
100
AcDbDictionary
281
     1
  3
ByBlock
350
15E6
  3
ByLayer
350
15E5
  3
Global
350
15E7
  0
DICTIONARY
  5
15EA
102
{ACAD_REACTORS
330
19
102
}
330
19
100
AcDbDictionary
281
     1
  3
Standard
350
15EB
  0
DICTIONARY
  5
1B
102
{ACAD_REACTORS
330
19
102
}
330
19
100
AcDbDictionary
281
     1
  3
STANDARD
350
1C
  0
DICTIONARY
  5
15A3
102
{ACAD_REACTORS
330
19
102
}
330
19
100
AcDbDictionary
281
     1
  0
ACDBDICTIONARYWDFLT
  5
15A4
102
{ACAD_REACTORS
330
19
102
}
330
19
100
AcDbDictionary
281
     1
  3
Normal
350
15A5
100
AcDbDictionaryWithDefault
340
15A5
  0
DICTIONARY
  5
15A6
102
{ACAD_REACTORS
330
19
102
}
330
19
100
AcDbDictionary
281
     1
  3
A0
350
15A7
  3
A1
350
15A8
  3
A2
350
15A9
  3
A3
350
15AA
  3
A4
350
15AB
  3
A5
350
15AC
  3
A6
350
15AD
  3
A7
350
15AE
  3
A8
350
15AF
  3
A9
350
15B0
  3
B0
350
15B1
  3
B1
350
15B2
  3
B2
350
15B3
  3
B3
350
15B4
  3
B4
350
15B5
  3
B5
350
15B6
  3
B6
350
15B7
  3
B7
350
15B8
  3
B8
350
15B9
  3
B9
350
15BA
  3
C0
350
15BB
  3
C1
350
15BC
  3
C2
350
15BD
  3
C3
350
15BE
  3
C4
350
15BF
  3
C5
350
15C0
  3
C6
350
15C1
  3
C7
350
15C2
  3
C8
350
15C3
  3
C9
350
15C4
  3
D0
350
15C5
  3
D1
350
15C6
  3
D2
350
15C7
  0
DICTIONARY
  5
163A
102
{ACAD_REACTORS
330
19
102
}
330
19
100
AcDbDictionary
281
     1
  0
DICTIONARY
  5
15E8
102
{ACAD_REACTORS
330
19
102
}
330
19
100
AcDbDictionary
281
     1
  3
HISTORY_TABLE
350
1661
  3
Standard
350
15E9
  0
DICTIONARY
  5
15CB
102
{ACAD_REACTORS
330
19
102
}
330
19
100
AcDbDictionary
281
     1
  3
2dWireframe
350
15D0
  3
Basic
350
15D3
  3
Brighten
350
15D7
  3
ColorChange
350
15DB
  3
Conceptual
350
15D5
  3
Dim
350
15D6
  3
EdgeColorOff
350
15DE
  3
Facepattern
350
15DA
  3
Flat
350
15CC
  3
FlatWithEdges
350
15CD
  3
Gouraud
350
15CE
  3
GouraudWithEdges
350
15CF
  3
Hidden
350
15D2
  3
JitterOff
350
15DC
  3
Linepattern
350
15D9
  3
Modeling
350
15EC
  3
OverhangOff
350
15DD
  3
Realistic
350
15D4
  3
Shaded
350
15E3
  3
Shaded with edges
350
15E2
  3
Shades of Gray
350
15DF
  3
Sketchy
350
15E0
  3
Thicken
350
15D8
  3
Wireframe
350
15D1
  3
X-Ray
350
15E1
  0
XRECORD
  5
1B61
102
{ACAD_REACTORS
330
19
102
}
330
19
100
AcDbXrecord
280
     1
 90
        1
330
18FF
330
15E9
330
1661
  0
DICTIONARY
  5
15F4
102
{ACAD_REACTORS
330
19
102
}
330
19
100
AcDbDictionary
281
     1
  3
CANNOSCALE
350
15F5
  3
CMLEADERSTYLE
350
1637
  3
CTABLESTYLE
350
1636
  3
MSLTSCALE
350
1638
  3
XCLIPFRAME
350
15F6
  0
DICTIONARY
  5
18BE
102
{ACAD_REACTORS
330
18BD
102
}
330
18BD
100
AcDbDictionary
281
     1
  0
XRECORD
  5
163F
102
{ACAD_REACTORS
330
163E
102
}
330
163E
100
AcDbXrecord
280
     1
290
     1
  0
XRECORD
  5
164C
102
{ACAD_REACTORS
330
164B
102
}
330
164B
100
AcDbXrecord
280
     1
290
     1
  0
DICTIONARY
  5
16A4
102
{ACAD_REACTORS
330
16A3
102
}
330
16A3
100
AcDbDictionary
281
     1
  3
PERSIDMANAGER
350
16A5
  0
SORTENTSTABLE
  5
16B4
102
{ACAD_REACTORS
330
16B3
102
}
330
16B3
100
AcDbSortentsTable
330
16B2
331
16B8
  5
16B9
331
16B9
  5
16B8
  0
DICTIONARY
  5
16B5
102
{ACAD_REACTORS
330
16B3
102
}
330
16B3
100
AcDbDictionary
281
     1
  3
PERSIDMANAGER
350
16B6
  0
SORTENTSTABLE
  5
16C5
102
{ACAD_REACTORS
330
16C4
102
}
330
16C4
100
AcDbSortentsTable
330
16C3
331
16C9
  5
16CA
331
16CA
  5
16C9
  0
DICTIONARY
  5
16C6
102
{ACAD_REACTORS
330
16C4
102
}
330
16C4
100
AcDbDictionary
281
     1
  3
PERSIDMANAGER
350
16C7
  0
SORTENTSTABLE
  5
16D6
102
{ACAD_REACTORS
330
16D5
102
}
330
16D5
100
AcDbSortentsTable
330
16D4
331
16DA
  5
16DB
331
16DB
  5
16DA
  0
DICTIONARY
  5
16D7
102
{ACAD_REACTORS
330
16D5
102
}
330
16D5
100
AcDbDictionary
281
     1
  3
PERSIDMANAGER
350
16D8
  0
SORTENTSTABLE
  5
16E7
102
{ACAD_REACTORS
330
16E6
102
}
330
16E6
100
AcDbSortentsTable
330
16E5
331
16EB
  5
16EC
331
16EC
  5
16EB
  0
DICTIONARY
  5
16E8
102
{ACAD_REACTORS
330
16E6
102
}
330
16E6
100
AcDbDictionary
281
     1
  3
PERSIDMANAGER
350
16E9
  0
DICTIONARY
  5
16AE
102
{ACAD_REACTORS
330
16AD
102
}
330
16AD
100
AcDbDictionary
281
     1
  3
PERSIDMANAGER
350
16AF
  0
DICTIONARY
  5
16BF
102
{ACAD_REACTORS
330
16BE
102
}
330
16BE
100
AcDbDictionary
281
     1
  3
PERSIDMANAGER
350
16C0
  0
DICTIONARY
  5
16D0
102
{ACAD_REACTORS
330
16CF
102
}
330
16CF
100
AcDbDictionary
281
     1
  3
PERSIDMANAGER
350
16D1
  0
DICTIONARY
  5
16E1
102
{ACAD_REACTORS
330
16E0
102
}
330
16E0
100
AcDbDictionary
281
     1
  3
PERSIDMANAGER
350
16E2
  0
SORTENTSTABLE
  5
16FE
102
{ACAD_REACTORS
330
16FD
102
}
330
16FD
100
AcDbSortentsTable
330
16FC
331
1702
  5
172E
331
1703
  5
172D
331
1704
  5
172C
331
1705
  5
172B
331
1706
  5
172A
331
1707
  5
1729
331
1708
  5
1728
331
1709
  5
1727
331
170A
  5
1726
331
170B
  5
1725
331
170C
  5
1724
331
170D
  5
1723
331
170E
  5
1722
331
170F
  5
1721
331
1710
  5
1720
331
1711
  5
171F
331
1712
  5
171E
331
1713
  5
171D
331
1714
  5
171C
331
1715
  5
171B
331
1716
  5
171A
331
1717
  5
1719
331
1719
  5
1717
331
171A
  5
1716
331
171B
  5
1715
331
171C
  5
1714
331
171D
  5
1713
331
171E
  5
1712
331
171F
  5
1711
331
1720
  5
1710
331
1721
  5
170F
331
1722
  5
170E
331
1723
  5
170D
331
1724
  5
170C
331
1725
  5
170B
331
1726
  5
170A
331
1727
  5
1709
331
1728
  5
1708
331
1729
  5
1707
331
172A
  5
1706
331
172B
  5
1705
331
172C
  5
1704
331
172D
  5
1703
331
172E
  5
1702
  0
DICTIONARY
  5
16FF
102
{ACAD_REACTORS
330
16FD
102
}
330
16FD
100
AcDbDictionary
281
     1
  3
PERSIDMANAGER
350
1700
  0
XRECORD
  5
1B2A
102
{ACAD_REACTORS
330
1B29
102
}
330
1B29
100
AcDbXrecord
280
     1
102
ACAD_ROUNDTRIP_2008_TABLE_ENTITY
360
1B26
 70
     2
 90
        1
 10
0.0
 20
0.0
 30
0.0
 90
        0
 90
        4
361
1B27
  0
DICTIONARY
  5
1903
102
{ACAD_REACTORS
330
1902
102
}
330
1902
100
AcDbDictionary
281
     1
  3
ACDB_ANNOTATIONSCALES
350
1904
  0
DICTIONARY
  5
1907
102
{ACAD_REACTORS
330
1906
102
}
330
1906
100
AcDbDictionary
281
     1
  3
ACDB_ANNOTATIONSCALES
350
1908
  0
DICTIONARY
  5
190B
102
{ACAD_REACTORS
330
190A
102
}
330
190A
100
AcDbDictionary
281
     1
  3
ACDB_ANNOTATIONSCALES
350
190C
  0
DICTIONARY
  5
190F
102
{ACAD_REACTORS
330
190E
102
}
330
190E
100
AcDbDictionary
281
     1
  3
ACDB_ANNOTATIONSCALES
350
1910
  0
DICTIONARY
  5
1913
102
{ACAD_REACTORS
330
1912
102
}
330
1912
100
AcDbDictionary
281
     1
  3
ACDB_ANNOTATIONSCALES
350
1914
  0
DICTIONARY
  5
1917
102
{ACAD_REACTORS
330
1916
102
}
330
1916
100
AcDbDictionary
281
     1
  3
ACDB_ANNOTATIONSCALES
350
1918
  0
DICTIONARY
  5
191C
102
{ACAD_REACTORS
330
191B
102
}
330
191B
100
AcDbDictionary
281
     1
  3
ACDB_ANNOTATIONSCALES
350
191D
  0
DICTIONARY
  5
1920
102
{ACAD_REACTORS
330
191F
102
}
330
191F
100
AcDbDictionary
281
     1
  3
ACDB_ANNOTATIONSCALES
350
1921
  0
DICTIONARY
  5
1924
102
{ACAD_REACTORS
330
1923
102
}
330
1923
100
AcDbDictionary
281
     1
  3
ACDB_ANNOTATIONSCALES
350
1925
  0
DICTIONARY
  5
193B
102
{ACAD_REACTORS
330
193A
102
}
330
193A
100
AcDbDictionary
281
     1
  3
ACDB_ANNOTATIONSCALES
350
193C
  0
LAYOUT
  5
15C9
102
{ACAD_REACTORS
330
15C8
102
}
330
15C8
100
AcDbPlotSettings
  1

  2
none_device
  4
Letter_(8.50_x_11.00_Inches)
  6

 40
6.35
 41
6.35
 42
6.35000508
 43
6.35000508
 44
215.9
 45
279.4
 46
0.0
 47
0.0
 48
0.0
 49
0.0
140
0.0
141
0.0
142
1.0
143
28.28571482449
 70
  1712
 72
     0
 73
     0
 74
     0
  7

 75
     0
 76
     0
 77
     2
 78
   300
147
0.03535353468
148
-958.8054484
149
0.0
100
AcDbLayout
  1
Model
 70
     1
 71
     0
 10
0.0
 20
0.0
 11
420.0
 21
297.0
 12
0.0
 22
0.0
 32
0.0
 14
0.0
 24
0.0
 34
0.0
 15
1680.0
 25
1188.0
 35
0.0
146
0.0
 13
0.0
 23
0.0
 33
0.0
 16
1.0
 26
0.0
 36
0.0
 17
0.0
 27
1.0
 37
0.0
 76
     0
330
A
331
15
  0
LAYOUT
  5
15CA
102
{ACAD_REACTORS
330
15C8
102
}
330
15C8
100
AcDbPlotSettings
  1

  2
none_device
  4

  6

 40
0.0
 41
0.0
 42
0.0
 43
0.0
 44
0.0
 45
0.0
 46
0.0
 47
0.0
 48
0.0
 49
0.0
140
0.0
141
0.0
142
1.0
143
1.0
 70
   688
 72
     0
 73
     0
 74
     5
  7

 75
    16
 76
     0
 77
     2
 78
   300
147
1.0
148
0.0
149
0.0
100
AcDbLayout
  1
レイアウト1
 70
     0
 71
     1
 10
0.0
 20
0.0
 11
12.0
 21
9.0
 12
0.0
 22
0.0
 32
0.0
 14
1.000000000000E+20
 24
1.000000000000E+20
 34
1.000000000000E+20
 15
-1.000000000000E+20
 25
-1.000000000000E+20
 35
-1.000000000000E+20
146
0.0
 13
0.0
 23
0.0
 33
0.0
 16
1.0
 26
0.0
 36
0.0
 17
0.0
 27
1.0
 37
0.0
 76
     0
330
B
331
1D
  0
MATERIAL
  5
15E6
102
{ACAD_REACTORS
330
15E4
102
}
330
15E4
100
AcDbMaterial
  1
ByBlock
 72
     1
 94
      127
  0
MATERIAL
  5
15E5
102
{ACAD_REACTORS
330
15E4
102
}
330
15E4
100
AcDbMaterial
  1
ByLayer
 72
     1
 94
      127
  0
MATERIAL
  5
15E7
102
{ACAD_REACTORS
330
15E4
102
}
330
15E4
100
AcDbMaterial
  1
Global
 72
     1
 94
      127
  0
MLEADERSTYLE
  5
15EB
102
{ACAD_REACTORS
330
15EA
102
}
330
15EA
100
AcDbMLeaderStyle
179
     2
170
     2
171
     1
172
     0
 90
        2
 40
0.0
 41
0.0
173
     1
 91
-1056964608
340
11
 92
       -2
290
     1
 42
0.09
291
     1
 43
0.36
  3
Standard
341
0
 44
0.18
300

342
17
174
     1
178
     6
175
     1
176
     0
 93
-1056964608
 45
0.18
292
     0
297
     0
 46
0.18
343
0
 94
-1056964608
 47
1.0
 49
1.0
140
1.0
293
     1
141
0.0
294
     1
177
     0
142
1.0
295
     0
296
     0
143
0.125
271
     0
272
     9
273
     9
  0
MLINESTYLE
  5
1C
102
{ACAD_REACTORS
330
1B
102
}
330
1B
100
AcDbMlineStyle
  2
STANDARD
 70
     0
  3

 62
     0
 51
90.0
 52
90.0
 71
     2
 49
0.5
 62
   256
  6
BYLAYER
 49
-0.5
 62
   256
  6
BYLAYER
  0
ACDBPLACEHOLDER
  5
15A5
102
{ACAD_REACTORS
330
15A4
102
}
330
15A4
  0
SCALE
  5
15A7
102
{ACAD_REACTORS
330
15A6
102
}
330
15A6
100
AcDbScale
 70
     0
300
1:1
140
1.0
141
1.0
290
     1
  0
SCALE
  5
15A8
102
{ACAD_REACTORS
330
15A6
102
}
330
15A6
100
AcDbScale
 70
     0
300
1:2
140
1.0
141
2.0
290
     0
  0
SCALE
  5
15A9
102
{ACAD_REACTORS
330
15A6
102
}
330
15A6
100
AcDbScale
 70
     0
300
1:4
140
1.0
141
4.0
290
     0
  0
SCALE
  5
15AA
102
{ACAD_REACTORS
330
15A6
102
}
330
15A6
100
AcDbScale
 70
     0
300
1:5
140
1.0
141
5.0
290
     0
  0
SCALE
  5
15AB
102
{ACAD_REACTORS
330
15A6
102
}
330
15A6
100
AcDbScale
 70
     0
300
1:8
140
1.0
141
8.0
290
     0
  0
SCALE
  5
15AC
102
{ACAD_REACTORS
330
15A6
102
}
330
15A6
100
AcDbScale
 70
     0
300
1:10
140
1.0
141
10.0
290
     0
  0
SCALE
  5
15AD
102
{ACAD_REACTORS
330
15A6
102
}
330
15A6
100
AcDbScale
 70
     0
300
1:16
140
1.0
141
16.0
290
     0
  0
SCALE
  5
15AE
102
{ACAD_REACTORS
330
15A6
102
}
330
15A6
100
AcDbScale
 70
     0
300
1:20
140
1.0
141
20.0
290
     0
  0
SCALE
  5
15AF
102
{ACAD_REACTORS
330
15A6
102
}
330
15A6
100
AcDbScale
 70
     0
300
1:30
140
1.0
141
30.0
290
     0
  0
SCALE
  5
15B0
102
{ACAD_REACTORS
330
15A6
102
}
330
15A6
100
AcDbScale
 70
     0
300
1:40
140
1.0
141
40.0
290
     0
  0
SCALE
  5
15B1
102
{ACAD_REACTORS
330
15A6
102
}
330
15A6
100
AcDbScale
 70
     0
300
1:50
140
1.0
141
50.0
290
     0
  0
SCALE
  5
15B2
102
{ACAD_REACTORS
330
15A6
102
}
330
15A6
100
AcDbScale
 70
     0
300
1:100
140
1.0
141
100.0
290
     0
  0
SCALE
  5
15B3
102
{ACAD_REACTORS
330
15A6
102
}
330
15A6
100
AcDbScale
 70
     0
300
2:1
140
2.0
141
1.0
290
     0
  0
SCALE
  5
15B4
102
{ACAD_REACTORS
330
15A6
102
}
330
15A6
100
AcDbScale
 70
     0
300
4:1
140
4.0
141
1.0
290
     0
  0
SCALE
  5
15B5
102
{ACAD_REACTORS
330
15A6
102
}
330
15A6
100
AcDbScale
 70
     0
300
8:1
140
8.0
141
1.0
290
     0
  0
SCALE
  5
15B6
102
{ACAD_REACTORS
330
15A6
102
}
330
15A6
100
AcDbScale
 70
     0
300
10:1
140
10.0
141
1.0
290
     0
  0
SCALE
  5
15B7
102
{ACAD_REACTORS
330
15A6
102
}
330
15A6
100
AcDbScale
 70
     0
300
100:1
140
100.0
141
1.0
290
     0
  0
SCALE
  5
15B8
102
{ACAD_REACTORS
330
15A6
102
}
330
15A6
100
AcDbScale
 70
     0
300
1/128" = 1'-0"
140
0.0078125
141
12.0
290
     0
  0
SCALE
  5
15B9
102
{ACAD_REACTORS
330
15A6
102
}
330
15A6
100
AcDbScale
 70
     0
300
1/64" = 1'-0"
140
0.015625
141
12.0
290
     0
  0
SCALE
  5
15BA
102
{ACAD_REACTORS
330
15A6
102
}
330
15A6
100
AcDbScale
 70
     0
300
1/32" = 1'-0"
140
0.03125
141
12.0
290
     0
  0
SCALE
  5
15BB
102
{ACAD_REACTORS
330
15A6
102
}
330
15A6
100
AcDbScale
 70
     0
300
1/16" = 1'-0"
140
0.0625
141
12.0
290
     0
  0
SCALE
  5
15BC
102
{ACAD_REACTORS
330
15A6
102
}
330
15A6
100
AcDbScale
 70
     0
300
3/32" = 1'-0"
140
0.09375
141
12.0
290
     0
  0
SCALE
  5
15BD
102
{ACAD_REACTORS
330
15A6
102
}
330
15A6
100
AcDbScale
 70
     0
300
1/8" = 1'-0"
140
0.125
141
12.0
290
     0
  0
SCALE
  5
15BE
102
{ACAD_REACTORS
330
15A6
102
}
330
15A6
100
AcDbScale
 70
     0
300
3/16" = 1'-0"
140
0.1875
141
12.0
290
     0
  0
SCALE
  5
15BF
102
{ACAD_REACTORS
330
15A6
102
}
330
15A6
100
AcDbScale
 70
     0
300
1/4" = 1'-0"
140
0.25
141
12.0
290
     0
  0
SCALE
  5
15C0
102
{ACAD_REACTORS
330
15A6
102
}
330
15A6
100
AcDbScale
 70
     0
300
3/8" = 1'-0"
140
0.375
141
12.0
290
     0
  0
SCALE
  5
15C1
102
{ACAD_REACTORS
330
15A6
102
}
330
15A6
100
AcDbScale
 70
     0
300
1/2" = 1'-0"
140
0.5
141
12.0
290
     0
  0
SCALE
  5
15C2
102
{ACAD_REACTORS
330
15A6
102
}
330
15A6
100
AcDbScale
 70
     0
300
3/4" = 1'-0"
140
0.75
141
12.0
290
     0
  0
SCALE
  5
15C3
102
{ACAD_REACTORS
330
15A6
102
}
330
15A6
100
AcDbScale
 70
     0
300
1" = 1'-0"
140
1.0
141
12.0
290
     0
  0
SCALE
  5
15C4
102
{ACAD_REACTORS
330
15A6
102
}
330
15A6
100
AcDbScale
 70
     0
300
1-1/2" = 1'-0"
140
1.5
141
12.0
290
     0
  0
SCALE
  5
15C5
102
{ACAD_REACTORS
330
15A6
102
}
330
15A6
100
AcDbScale
 70
     0
300
3" = 1'-0"
140
3.0
141
12.0
290
     0
  0
SCALE
  5
15C6
102
{ACAD_REACTORS
330
15A6
102
}
330
15A6
100
AcDbScale
 70
     0
300
6" = 1'-0"
140
6.0
141
12.0
290
     0
  0
SCALE
  5
15C7
102
{ACAD_REACTORS
330
15A6
102
}
330
15A6
100
AcDbScale
 70
     0
300
1'-0" = 1'-0"
140
12.0
141
12.0
290
     0
  0
TABLESTYLE
  5
1661
102
{ACAD_REACTORS
330
15E8
330
18FF
102
}
102
{ACAD_XDICTIONARY
360
1B5F
102
}
330
15E8
100
AcDbTableStyle
  3

 70
     1
 71
     0
 40
0.06
 41
0.06
280
     0
281
     0
  7
ＭＳ ゴシック
140
6.0
170
     2
 62
     0
 63
   257
283
     0
 90
        4
 91
        0
  1

274
    -2
284
     1
 64
     0
275
    -2
285
     1
 65
     0
276
    -2
286
     1
 66
     0
277
    -2
287
     1
 67
     0
278
    -2
288
     1
 68
     0
279
    -2
289
     1
 69
     0
  7
ＭＳ ゴシック
140
1.0
170
     5
 62
     0
 63
   257
283
     0
 90
        4
 91
        0
  1

274
    -2
284
     1
 64
     0
275
    -2
285
     1
 65
     0
276
    -2
286
     1
 66
     0
277
    -2
287
     1
 67
     0
278
    -2
288
     1
 68
     0
279
    -2
289
     1
 69
     0
  7
ＭＳ ゴシック
140
6.0
170
     5
 62
     0
 63
   257
283
     0
 90
        4
 91
        0
  1

274
    -2
284
     1
 64
     0
275
    -2
285
     1
 65
     0
276
    -2
286
     1
 66
     0
277
    -2
287
     1
 67
     0
278
    -2
288
     1
 68
     0
279
    -2
289
     1
 69
     0
  0
TABLESTYLE
  5
15E9
102
{ACAD_REACTORS
330
15E8
102
}
102
{ACAD_XDICTIONARY
360
1B5D
102
}
330
15E8
100
AcDbTableStyle
  3
Standard
 70
     0
 71
     0
 40
0.06
 41
0.06
280
     0
281
     0
  7
STANDARD
140
0.18
170
     2
 62
     0
 63
   257
283
     0
 90
        4
 91
        0
  1

274
    -2
284
     1
 64
     0
275
    -2
285
     1
 65
     0
276
    -2
286
     1
 66
     0
277
    -2
287
     1
 67
     0
278
    -2
288
     1
 68
     0
279
    -2
289
     1
 69
     0
  7
STANDARD
140
0.25
170
     5
 62
     0
 63
   257
283
     0
 90
        4
 91
        0
  1

274
    -2
284
     1
 64
     0
275
    -2
285
     1
 65
     0
276
    -2
286
     1
 66
     0
277
    -2
287
     1
 67
     0
278
    -2
288
     1
 68
     0
279
    -2
289
     1
 69
     0
  7
STANDARD
140
0.18
170
     5
 62
     0
 63
   257
283
     0
 90
        4
 91
        0
  1

274
    -2
284
     1
 64
     0
275
    -2
285
     1
 65
     0
276
    -2
286
     1
 66
     0
277
    -2
287
     1
 67
     0
278
    -2
288
     1
 68
     0
279
    -2
289
     1
 69
     0
  0
VISUALSTYLE
  5
15D0
102
{ACAD_REACTORS
330
15CB
102
}
102
{ACAD_XDICTIONARY
360
1B33
102
}
330
15CB
100
AcDbVisualStyle
  2
2dWireframe
 70
     4
177
     2
291
     0
 71
     0
176
     1
 72
     2
176
     1
 73
     0
176
     1
 90
        0
176
     1
 40
0.6
176
     1
 41
30.0
176
     1
 62
     5
 63
     7
421
 16777215
176
     1
 74
     1
176
     1
 91
        4
176
     1
 64
     7
176
     1
 65
   257
176
     1
 75
     1
176
     1
175
     1
176
     1
 42
1.0
176
     1
 92
        0
176
     1
 66
   257
176
     1
 43
1.0
176
     1
 76
     1
176
     1
 77
     6
176
     1
 78
     2
176
     1
 67
     7
176
     1
 79
     5
176
     1
170
     0
176
     1
171
     0
176
     1
290
     0
176
     1
 93
        1
176
     1
 44
0.0
176
     1
173
     0
176
     1
  0
VISUALSTYLE
  5
15D3
102
{ACAD_REACTORS
330
15CB
102
}
102
{ACAD_XDICTIONARY
360
1B39
102
}
330
15CB
100
AcDbVisualStyle
  2
Basic
 70
     7
177
     2
291
     1
 71
     1
176
     1
 72
     0
176
     1
 73
     1
176
     1
 90
        0
176
     1
 40
0.6
176
     1
 41
30.0
176
     1
 62
     5
 63
     7
421
 16777215
176
     1
 74
     0
176
     1
 91
        4
176
     1
 64
     7
176
     1
 65
   257
176
     1
 75
     1
176
     1
175
     1
176
     1
 42
1.0
176
     1
 92
        8
176
     1
 66
     7
176
     1
 43
1.0
176
     1
 76
     1
176
     1
 77
     6
176
     1
 78
     2
176
     1
 67
     7
176
     1
 79
     5
176
     1
170
     0
176
     1
171
     0
176
     1
290
     0
176
     1
 93
        1
176
     1
 44
0.0
176
     1
173
     0
176
     1
  0
VISUALSTYLE
  5
15D7
102
{ACAD_REACTORS
330
15CB
102
}
102
{ACAD_XDICTIONARY
360
1B41
102
}
330
15CB
100
AcDbVisualStyle
  2
Brighten
 70
    12
177
     2
291
     1
 71
     2
176
     1
 72
     2
176
     1
 73
     0
176
     1
 90
        0
176
     1
 40
0.6
176
     1
 41
30.0
176
     1
 62
     5
 63
     7
421
 16777215
176
     1
 74
     1
176
     1
 91
        4
176
     1
 64
     7
176
     1
 65
   257
176
     1
 75
     1
176
     1
175
     1
176
     1
 42
1.0
176
     1
 92
        8
176
     1
 66
     7
176
     1
 43
1.0
176
     1
 76
     1
176
     1
 77
     6
176
     1
 78
     2
176
     1
 67
     7
176
     1
 79
     5
176
     1
170
     0
176
     1
171
     0
176
     1
290
     0
176
     1
 93
        1
176
     1
 44
50.0
176
     1
173
     0
176
     1
  0
VISUALSTYLE
  5
15DB
102
{ACAD_REACTORS
330
15CB
102
}
102
{ACAD_XDICTIONARY
360
1B49
102
}
330
15CB
100
AcDbVisualStyle
  2
ColorChange
 70
    16
177
     2
291
     1
 71
     2
176
     1
 72
     2
176
     1
 73
     3
176
     1
 90
        0
176
     1
 40
0.6
176
     1
 41
30.0
176
     1
 62
     5
 63
     8
421
  8421504
176
     1
 74
     1
176
     1
 91
        4
176
     1
 64
     7
176
     1
 65
   257
176
     1
 75
     1
176
     1
175
     1
176
     1
 42
1.0
176
     1
 92
        8
176
     1
 66
     8
424
  8421504
176
     1
 43
1.0
176
     1
 76
     1
176
     1
 77
     6
176
     1
 78
     2
176
     1
 67
     7
176
     1
 79
     5
176
     1
170
     0
176
     1
171
     0
176
     1
290
     0
176
     1
 93
        1
176
     1
 44
0.0
176
     1
173
     0
176
     1
  0
VISUALSTYLE
  5
15D5
102
{ACAD_REACTORS
330
15CB
102
}
102
{ACAD_XDICTIONARY
360
1B3D
102
}
330
15CB
100
AcDbVisualStyle
  2
Conceptual
 70
     9
177
     2
291
     0
 71
     3
176
     1
 72
     2
176
     1
 73
     0
176
     1
 90
        0
176
     1
 40
0.6
176
     1
 41
30.0
176
     1
 62
     5
 63
     7
421
 16777215
176
     1
 74
     2
176
     1
 91
        2
176
     1
 64
     7
176
     1
 65
   257
176
     1
 75
     1
176
     1
175
     1
176
     1
 42
179.0
176
     1
 92
        8
176
     1
 66
     7
176
     1
 43
1.0
176
     1
 76
     1
176
     1
 77
     6
176
     1
 78
     2
176
     1
 67
     7
176
     1
 79
     3
176
     1
170
     0
176
     1
171
     0
176
     1
290
     0
176
     1
 93
        1
176
     1
 44
0.0
176
     1
173
     0
176
     1
  0
VISUALSTYLE
  5
15D6
102
{ACAD_REACTORS
330
15CB
102
}
102
{ACAD_XDICTIONARY
360
1B3F
102
}
330
15CB
100
AcDbVisualStyle
  2
Dim
 70
    11
177
     2
291
     1
 71
     2
176
     1
 72
     2
176
     1
 73
     0
176
     1
 90
        0
176
     1
 40
0.6
176
     1
 41
30.0
176
     1
 62
     5
 63
     7
421
 16777215
176
     1
 74
     1
176
     1
 91
        4
176
     1
 64
     7
176
     1
 65
   257
176
     1
 75
     1
176
     1
175
     1
176
     1
 42
1.0
176
     1
 92
        8
176
     1
 66
     7
176
     1
 43
1.0
176
     1
 76
     1
176
     1
 77
     6
176
     1
 78
     2
176
     1
 67
     7
176
     1
 79
     5
176
     1
170
     0
176
     1
171
     0
176
     1
290
     0
176
     1
 93
        1
176
     1
 44
-50.0
176
     1
173
     0
176
     1
  0
VISUALSTYLE
  5
15DE
102
{ACAD_REACTORS
330
15CB
102
}
102
{ACAD_XDICTIONARY
360
1B4F
102
}
330
15CB
100
AcDbVisualStyle
  2
EdgeColorOff
 70
    22
177
     2
291
     1
 71
     2
176
     0
 72
     2
176
     0
 73
     0
176
     0
 90
        0
176
     0
 40
0.6
176
     0
 41
30.0
176
     0
 62
     5
 63
     7
421
 16777215
176
     0
 74
     1
176
     0
 91
        4
176
     0
 64
     7
176
     0
 65
   257
176
     0
 75
     1
176
     0
175
     1
176
     0
 42
1.0
176
     0
 92
        8
176
     2
 66
     7
176
     0
 43
1.0
176
     0
 76
     1
176
     0
 77
     6
176
     0
 78
     2
176
     0
 67
     7
176
     0
 79
     5
176
     0
170
     0
176
     0
171
     0
176
     0
290
     0
176
     0
 93
        1
176
     0
 44
0.0
176
     0
173
     0
176
     0
  0
VISUALSTYLE
  5
15DA
102
{ACAD_REACTORS
330
15CB
102
}
102
{ACAD_XDICTIONARY
360
1B47
102
}
330
15CB
100
AcDbVisualStyle
  2
Facepattern
 70
    15
177
     2
291
     1
 71
     2
176
     1
 72
     2
176
     1
 73
     0
176
     1
 90
        0
176
     1
 40
0.6
176
     1
 41
30.0
176
     1
 62
     5
 63
     7
421
 16777215
176
     1
 74
     1
176
     1
 91
        4
176
     1
 64
     7
176
     1
 65
   257
176
     1
 75
     1
176
     1
175
     1
176
     1
 42
1.0
176
     1
 92
        8
176
     1
 66
     7
176
     1
 43
1.0
176
     1
 76
     1
176
     1
 77
     6
176
     1
 78
     2
176
     1
 67
     7
176
     1
 79
     5
176
     1
170
     0
176
     1
171
     0
176
     1
290
     0
176
     1
 93
        1
176
     1
 44
0.0
176
     1
173
     0
176
     1
  0
VISUALSTYLE
  5
15CC
102
{ACAD_REACTORS
330
15CB
102
}
102
{ACAD_XDICTIONARY
360
1B2B
102
}
330
15CB
100
AcDbVisualStyle
  2
Flat
 70
     0
177
     2
291
     1
 71
     2
176
     1
 72
     1
176
     1
 73
     1
176
     1
 90
        2
176
     1
 40
0.6
176
     1
 41
30.0
176
     1
 62
     5
 63
     7
421
 16777215
176
     1
 74
     0
176
     1
 91
        0
176
     1
 64
     7
176
     1
 65
   257
176
     1
 75
     1
176
     1
175
     1
176
     1
 42
1.0
176
     1
 92
        8
176
     1
 66
     7
176
     1
 43
1.0
176
     1
 76
     1
176
     1
 77
     6
176
     1
 78
     2
176
     1
 67
     7
176
     1
 79
     5
176
     1
170
     0
176
     1
171
     0
176
     1
290
     0
176
     1
 93
       13
176
     1
 44
0.0
176
     1
173
     0
176
     1
  0
VISUALSTYLE
  5
15CD
102
{ACAD_REACTORS
330
15CB
102
}
102
{ACAD_XDICTIONARY
360
1B2D
102
}
330
15CB
100
AcDbVisualStyle
  2
FlatWithEdges
 70
     1
177
     2
291
     1
 71
     2
176
     1
 72
     1
176
     1
 73
     1
176
     1
 90
        2
176
     1
 40
0.6
176
     1
 41
30.0
176
     1
 62
     5
 63
     7
421
 16777215
176
     1
 74
     1
176
     1
 91
        0
176
     1
 64
     7
176
     1
 65
   257
176
     1
 75
     1
176
     1
175
     1
176
     1
 42
1.0
176
     1
 92
        0
176
     1
 66
   257
176
     1
 43
1.0
176
     1
 76
     1
176
     1
 77
     6
176
     1
 78
     2
176
     1
 67
     7
176
     1
 79
     5
176
     1
170
     0
176
     1
171
     0
176
     1
290
     0
176
     1
 93
       13
176
     1
 44
0.0
176
     1
173
     0
176
     1
  0
VISUALSTYLE
  5
15CE
102
{ACAD_REACTORS
330
15CB
102
}
102
{ACAD_XDICTIONARY
360
1B2F
102
}
330
15CB
100
AcDbVisualStyle
  2
Gouraud
 70
     2
177
     2
291
     1
 71
     2
176
     1
 72
     2
176
     1
 73
     1
176
     1
 90
        2
176
     1
 40
0.6
176
     1
 41
30.0
176
     1
 62
     5
 63
     7
421
 16777215
176
     1
 74
     0
176
     1
 91
        0
176
     1
 64
     7
176
     1
 65
   257
176
     1
 75
     1
176
     1
175
     1
176
     1
 42
1.0
176
     1
 92
        0
176
     1
 66
     7
176
     1
 43
1.0
176
     1
 76
     1
176
     1
 77
     6
176
     1
 78
     2
176
     1
 67
     7
176
     1
 79
     5
176
     1
170
     0
176
     1
171
     0
176
     1
290
     0
176
     1
 93
       13
176
     1
 44
0.0
176
     1
173
     0
176
     1
  0
VISUALSTYLE
  5
15CF
102
{ACAD_REACTORS
330
15CB
102
}
102
{ACAD_XDICTIONARY
360
1B31
102
}
330
15CB
100
AcDbVisualStyle
  2
GouraudWithEdges
 70
     3
177
     2
291
     1
 71
     2
176
     1
 72
     2
176
     1
 73
     1
176
     1
 90
        2
176
     1
 40
0.6
176
     1
 41
30.0
176
     1
 62
     5
 63
     7
421
 16777215
176
     1
 74
     1
176
     1
 91
        0
176
     1
 64
     7
176
     1
 65
   257
176
     1
 75
     1
176
     1
175
     1
176
     1
 42
1.0
176
     1
 92
        0
176
     1
 66
   257
176
     1
 43
1.0
176
     1
 76
     1
176
     1
 77
     6
176
     1
 78
     2
176
     1
 67
     7
176
     1
 79
     5
176
     1
170
     0
176
     1
171
     0
176
     1
290
     0
176
     1
 93
       13
176
     1
 44
0.0
176
     1
173
     0
176
     1
  0
VISUALSTYLE
  5
15D2
102
{ACAD_REACTORS
330
15CB
102
}
102
{ACAD_XDICTIONARY
360
1B37
102
}
330
15CB
100
AcDbVisualStyle
  2
Hidden
 70
     6
177
     2
291
     0
 71
     1
176
     1
 72
     2
176
     1
 73
     2
176
     1
 90
        0
176
     1
 40
0.6
176
     1
 41
30.0
176
     1
 62
     5
 63
     7
421
 16777215
176
     1
 74
     2
176
     1
 91
        2
176
     1
 64
     7
176
     1
 65
   257
176
     1
 75
     2
176
     1
175
     1
176
     1
 42
40.0
176
     1
 92
        0
176
     1
 66
   257
176
     1
 43
1.0
176
     1
 76
     1
176
     1
 77
     6
176
     1
 78
     2
176
     1
 67
     7
176
     1
 79
     3
176
     1
170
     0
176
     1
171
     0
176
     1
290
     0
176
     1
 93
        1
176
     1
 44
0.0
176
     1
173
     0
176
     1
  0
VISUALSTYLE
  5
15DC
102
{ACAD_REACTORS
330
15CB
102
}
102
{ACAD_XDICTIONARY
360
1B4B
102
}
330
15CB
100
AcDbVisualStyle
  2
JitterOff
 70
    20
177
     2
291
     1
 71
     2
176
     0
 72
     2
176
     0
 73
     0
176
     0
 90
        0
176
     0
 40
0.6
176
     0
 41
30.0
176
     0
 62
     5
 63
     7
421
 16777215
176
     0
 74
     1
176
     0
 91
        4
176
     0
 64
     7
176
     0
 65
   257
176
     0
 75
     1
176
     0
175
     1
176
     0
 42
1.0
176
     0
 92
       10
176
     2
 66
     7
176
     0
 43
1.0
176
     0
 76
     1
176
     0
 77
     6
176
     0
 78
     2
176
     0
 67
     7
176
     0
 79
     5
176
     0
170
     0
176
     0
171
     0
176
     0
290
     0
176
     0
 93
        1
176
     0
 44
0.0
176
     0
173
     0
176
     0
  0
VISUALSTYLE
  5
15D9
102
{ACAD_REACTORS
330
15CB
102
}
102
{ACAD_XDICTIONARY
360
1B45
102
}
330
15CB
100
AcDbVisualStyle
  2
Linepattern
 70
    14
177
     2
291
     1
 71
     2
176
     1
 72
     2
176
     1
 73
     0
176
     1
 90
        0
176
     1
 40
0.6
176
     1
 41
30.0
176
     1
 62
     5
 63
     7
421
 16777215
176
     1
 74
     1
176
     1
 91
        4
176
     1
 64
     7
176
     1
 65
   257
176
     1
 75
     7
176
     1
175
     7
176
     1
 42
1.0
176
     1
 92
        8
176
     1
 66
     7
176
     1
 43
1.0
176
     1
 76
     1
176
     1
 77
     6
176
     1
 78
     2
176
     1
 67
     7
176
     1
 79
     5
176
     1
170
     0
176
     1
171
     0
176
     1
290
     0
176
     1
 93
        1
176
     1
 44
0.0
176
     1
173
     0
176
     1
  0
VISUALSTYLE
  5
15EC
102
{ACAD_REACTORS
330
15CB
102
}
102
{ACAD_XDICTIONARY
360
1B5B
102
}
330
15CB
100
AcDbVisualStyle
  2
Modeling
 70
    10
177
     2
291
     0
 71
     2
176
     1
 72
     3
176
     1
 73
     0
176
     1
 90
        2
176
     1
 40
0.6
176
     1
 41
30.0
176
     1
 62
     5
 63
     7
421
 16777215
176
     1
 74
     2
176
     1
 91
        0
176
     1
 64
     7
176
     1
 65
   257
176
     1
 75
     1
176
     1
175
     1
176
     1
 42
180.0
176
     1
 92
        8
176
     1
 66
     8
424
  7895160
176
     1
 43
1.0
176
     1
 76
     1
176
     1
 77
     6
176
     1
 78
     2
176
     1
 67
     7
176
     1
 79
     5
176
     1
170
     0
176
     1
171
     0
176
     1
290
     0
176
     1
 93
       13
176
     1
 44
0.0
176
     1
173
     0
176
     1
  0
VISUALSTYLE
  5
15DD
102
{ACAD_REACTORS
330
15CB
102
}
102
{ACAD_XDICTIONARY
360
1B4D
102
}
330
15CB
100
AcDbVisualStyle
  2
OverhangOff
 70
    21
177
     2
291
     1
 71
     2
176
     0
 72
     2
176
     0
 73
     0
176
     0
 90
        0
176
     0
 40
0.6
176
     0
 41
30.0
176
     0
 62
     5
 63
     7
421
 16777215
176
     0
 74
     1
176
     0
 91
        4
176
     0
 64
     7
176
     0
 65
   257
176
     0
 75
     1
176
     0
175
     1
176
     0
 42
1.0
176
     0
 92
        9
176
     2
 66
     7
176
     0
 43
1.0
176
     0
 76
     1
176
     0
 77
     6
176
     0
 78
     2
176
     0
 67
     7
176
     0
 79
     5
176
     0
170
     0
176
     0
171
     0
176
     0
290
     0
176
     0
 93
        1
176
     0
 44
0.0
176
     0
173
     0
176
     0
  0
VISUALSTYLE
  5
15D4
102
{ACAD_REACTORS
330
15CB
102
}
102
{ACAD_XDICTIONARY
360
1B3B
102
}
330
15CB
100
AcDbVisualStyle
  2
Realistic
 70
     8
177
     2
291
     0
 71
     2
176
     1
 72
     3
176
     1
 73
     0
176
     1
 90
        2
176
     1
 40
0.6
176
     1
 41
30.0
176
     1
 62
     5
 63
     7
421
 16777215
176
     1
 74
     0
176
     1
 91
        0
176
     1
 64
     7
176
     1
 65
   257
176
     1
 75
     1
176
     1
175
     1
176
     1
 42
1.0
176
     1
 92
        8
176
     1
 66
   257
176
     1
 43
1.0
176
     1
 76
     1
176
     1
 77
     6
176
     1
 78
     2
176
     1
 67
     7
176
     1
 79
     3
176
     1
170
     0
176
     1
171
     0
176
     1
290
     0
176
     1
 93
       13
176
     1
 44
0.0
176
     1
173
     0
176
     1
  0
VISUALSTYLE
  5
15E3
102
{ACAD_REACTORS
330
15CB
102
}
102
{ACAD_XDICTIONARY
360
1B59
102
}
330
15CB
100
AcDbVisualStyle
  2
Shaded
 70
    27
177
     2
291
     0
 71
     2
176
     1
 72
     2
176
     1
 73
     1
176
     1
 90
        2
176
     1
 40
0.6
176
     1
 41
30.0
176
     1
 62
     5
 63
     7
421
 16777215
176
     1
 74
     0
176
     1
 91
        4
176
     1
 64
     7
176
     1
 65
   257
176
     1
 75
     1
176
     1
175
     1
176
     1
 42
1.0
176
     1
 92
        8
176
     1
 66
   257
176
     1
 43
1.0
176
     1
 76
     1
176
     1
 77
     6
176
     1
 78
     2
176
     1
 67
     8
425
  7895160
176
     1
 79
     3
176
     1
170
     0
176
     1
171
     0
176
     1
290
     0
176
     1
 93
        5
176
     1
 44
0.0
176
     1
173
     0
176
     1
  0
VISUALSTYLE
  5
15E2
102
{ACAD_REACTORS
330
15CB
102
}
102
{ACAD_XDICTIONARY
360
1B57
102
}
330
15CB
100
AcDbVisualStyle
  2
Shaded with edges
 70
    26
177
     2
291
     0
 71
     2
176
     1
 72
     2
176
     1
 73
     1
176
     1
 90
        2
176
     1
 40
0.6
176
     1
 41
30.0
176
     1
 62
     5
 63
     7
421
 16777215
176
     1
 74
     1
176
     1
 91
       10
176
     1
 64
     7
176
     1
 65
   257
176
     1
 75
     2
176
     1
175
     1
176
     1
 42
1.0
176
     1
 92
        8
176
     1
 66
   257
176
     1
 43
1.0
176
     1
 76
     1
176
     1
 77
     6
176
     1
 78
     2
176
     1
 67
     7
176
     1
 79
     3
176
     1
170
     0
176
     1
171
     0
176
     1
290
     0
176
     1
 93
        5
176
     1
 44
0.0
176
     1
173
     0
176
     1
  0
VISUALSTYLE
  5
15DF
102
{ACAD_REACTORS
330
15CB
102
}
102
{ACAD_XDICTIONARY
360
1B51
102
}
330
15CB
100
AcDbVisualStyle
  2
Shades of Gray
 70
    23
177
     2
291
     0
 71
     2
176
     1
 72
     2
176
     1
 73
     3
176
     1
 90
        0
176
     1
 40
0.6
176
     1
 41
30.0
176
     1
 62
     5
 63
     7
421
 16777215
176
     1
 74
     2
176
     1
 91
        2
176
     1
 64
     7
176
     1
 65
     7
176
     1
 75
     1
176
     1
175
     1
176
     1
 42
40.0
176
     1
 92
        8
176
     1
 66
     7
176
     1
 43
1.0
176
     1
 76
     1
176
     1
 77
     6
176
     1
 78
     2
176
     1
 67
     7
176
     1
 79
     3
176
     1
170
     0
176
     1
171
     0
176
     1
290
     0
176
     1
 93
        1
176
     1
 44
0.0
176
     1
173
     0
176
     1
  0
VISUALSTYLE
  5
15E0
102
{ACAD_REACTORS
330
15CB
102
}
102
{ACAD_XDICTIONARY
360
1B53
102
}
330
15CB
100
AcDbVisualStyle
  2
Sketchy
 70
    24
177
     2
291
     0
 71
     1
176
     1
 72
     2
176
     1
 73
     2
176
     1
 90
        0
176
     1
 40
0.6
176
     1
 41
30.0
176
     1
 62
     5
 63
     7
421
 16777215
176
     1
 74
     2
176
     1
 91
        2
176
     1
 64
     7
176
     1
 65
     7
176
     1
 75
     1
176
     1
175
     1
176
     1
 42
40.0
176
     1
 92
       11
176
     1
 66
     7
176
     1
 43
1.0
176
     1
 76
     1
176
     1
 77
     6
176
     1
 78
     2
176
     1
 67
     7
176
     1
 79
     6
176
     1
170
     0
176
     1
171
     0
176
     1
290
     0
176
     1
 93
        1
176
     1
 44
0.0
176
     1
173
     0
176
     1
  0
VISUALSTYLE
  5
15D8
102
{ACAD_REACTORS
330
15CB
102
}
102
{ACAD_XDICTIONARY
360
1B43
102
}
330
15CB
100
AcDbVisualStyle
  2
Thicken
 70
    13
177
     2
291
     1
 71
     2
176
     1
 72
     2
176
     1
 73
     0
176
     1
 90
        0
176
     1
 40
0.6
176
     1
 41
30.0
176
     1
 62
     5
 63
     7
421
 16777215
176
     1
 74
     1
176
     1
 91
        4
176
     1
 64
     7
176
     1
 65
   257
176
     1
 75
     1
176
     1
175
     1
176
     1
 42
1.0
176
     1
 92
       12
176
     1
 66
     7
176
     1
 43
1.0
176
     1
 76
     1
176
     1
 77
     6
176
     1
 78
     2
176
     1
 67
     7
176
     1
 79
     5
176
     1
170
     0
176
     1
171
     0
176
     1
290
     0
176
     1
 93
        1
176
     1
 44
0.0
176
     1
173
     0
176
     1
  0
VISUALSTYLE
  5
15D1
102
{ACAD_REACTORS
330
15CB
102
}
102
{ACAD_XDICTIONARY
360
1B35
102
}
330
15CB
100
AcDbVisualStyle
  2
Wireframe
 70
     5
177
     2
291
     0
 71
     0
176
     1
 72
     2
176
     1
 73
     0
176
     1
 90
        0
176
     1
 40
0.6
176
     1
 41
30.0
176
     1
 62
     5
 63
     7
421
 16777215
176
     1
 74
     1
176
     1
 91
        4
176
     1
 64
     7
176
     1
 65
   257
176
     1
 75
     1
176
     1
175
     1
176
     1
 42
1.0
176
     1
 92
        0
176
     1
 66
   257
176
     1
 43
1.0
176
     1
 76
     1
176
     1
 77
     6
176
     1
 78
     2
176
     1
 67
     7
176
     1
 79
     3
176
     1
170
     0
176
     1
171
     0
176
     1
290
     0
176
     1
 93
        1
176
     1
 44
0.0
176
     1
173
     0
176
     1
  0
VISUALSTYLE
  5
15E1
102
{ACAD_REACTORS
330
15CB
102
}
102
{ACAD_XDICTIONARY
360
1B55
102
}
330
15CB
100
AcDbVisualStyle
  2
X-Ray
 70
    25
177
     2
291
     0
 71
     2
176
     1
 72
     2
176
     1
 73
     1
176
     1
 90
        1
176
     1
 40
0.5
176
     1
 41
30.0
176
     1
 62
     5
 63
     7
421
 16777215
176
     1
 74
     1
176
     1
 91
        0
176
     1
 64
     7
176
     1
 65
   257
176
     1
 75
     1
176
     1
175
     1
176
     1
 42
1.0
176
     1
 92
        8
176
     1
 66
     7
176
     1
 43
1.0
176
     1
 76
     1
176
     1
 77
     6
176
     1
 78
     2
176
     1
 67
     7
176
     1
 79
     3
176
     1
170
     0
176
     1
171
     0
176
     1
290
     0
176
     1
 93
       13
176
     1
 44
0.0
176
     1
173
     0
176
     1
  0
DICTIONARYVAR
  5
15F5
102
{ACAD_REACTORS
330
15F4
102
}
330
15F4
100
DictionaryVariables
280
     0
  1
1:1
  0
DICTIONARYVAR
  5
1637
102
{ACAD_REACTORS
330
15F4
102
}
330
15F4
100
DictionaryVariables
280
     0
  1
Standard
  0
DICTIONARYVAR
  5
1636
102
{ACAD_REACTORS
330
15F4
102
}
330
15F4
100
DictionaryVariables
280
     0
  1
Standard
  0
DICTIONARYVAR
  5
1638
102
{ACAD_REACTORS
330
15F4
102
}
330
15F4
100
DictionaryVariables
280
     0
  1
0
  0
DICTIONARYVAR
  5
15F6
102
{ACAD_REACTORS
330
15F4
102
}
330
15F4
100
DictionaryVariables
280
     0
  1
2
  0
BdmDbPersIdManager
  5
16A5
102
{ACAD_REACTORS
330
16A4
102
}
330
16A4
  0
BdmDbPersIdManager
  5
16B6
102
{ACAD_REACTORS
330
16B5
102
}
330
16B5
  0
BdmDbPersIdManager
  5
16C7
102
{ACAD_REACTORS
330
16C6
102
}
330
16C6
  0
BdmDbPersIdManager
  5
16D8
102
{ACAD_REACTORS
330
16D7
102
}
330
16D7
  0
BdmDbPersIdManager
  5
16E9
102
{ACAD_REACTORS
330
16E8
102
}
330
16E8
  0
BdmDbPersIdManager
  5
16AF
102
{ACAD_REACTORS
330
16AE
102
}
330
16AE
  0
BdmDbPersIdManager
  5
16C0
102
{ACAD_REACTORS
330
16BF
102
}
330
16BF
  0
BdmDbPersIdManager
  5
16D1
102
{ACAD_REACTORS
330
16D0
102
}
330
16D0
  0
BdmDbPersIdManager
  5
16E2
102
{ACAD_REACTORS
330
16E1
102
}
330
16E1
  0
BdmDbPersIdManager
  5
1700
102
{ACAD_REACTORS
330
16FF
102
}
330
16FF
  0
TABLECONTENT
  5
1B26
330
1B2A
100
AcDbLinkedData
  1

300

100
AcDbLinkedTableData
 90
        4
300
COLUMN
  1
LINKEDTABLEDATACOLUMN_BEGIN
300

 91
        0
301
CUSTOMDATA
  1
DATAMAP_BEGIN
 90
        0
309
DATAMAP_END
309
LINKEDTABLEDATACOLUMN_END
  1
FORMATTEDTABLEDATACOLUMN_BEGIN
300
COLUMNTABLEFORMAT
  1
TABLEFORMAT_BEGIN
 90
        3
170
     1
 91
      128
 92
        0
 62
   257
 93
        1
300
CONTENTFORMAT
  1
CONTENTFORMAT_BEGIN
 90
      128
 91
        0
 92
      512
 93
        0
300

 40
0.0
140
1.0
 94
        1
 62
     0
340
0
144
0.225
309
CONTENTFORMAT_END
171
     0
 94
        0
309
TABLEFORMAT_END
309
FORMATTEDTABLEDATACOLUMN_END
  1
TABLECOLUMN_BEGIN
 90
        0
 40
37.5
309
TABLECOLUMN_END
300
COLUMN
  1
LINKEDTABLEDATACOLUMN_BEGIN
300

 91
        0
301
CUSTOMDATA
  1
DATAMAP_BEGIN
 90
        0
309
DATAMAP_END
309
LINKEDTABLEDATACOLUMN_END
  1
FORMATTEDTABLEDATACOLUMN_BEGIN
300
COLUMNTABLEFORMAT
  1
TABLEFORMAT_BEGIN
 90
        3
170
     1
 91
      128
 92
        0
 62
   257
 93
        1
300
CONTENTFORMAT
  1
CONTENTFORMAT_BEGIN
 90
      128
 91
        0
 92
      512
 93
        0
300

 40
0.0
140
1.0
 94
        1
 62
     0
340
0
144
0.225
309
CONTENTFORMAT_END
171
     0
 94
        0
309
TABLEFORMAT_END
309
FORMATTEDTABLEDATACOLUMN_END
  1
TABLECOLUMN_BEGIN
 90
        0
 40
50.0
309
TABLECOLUMN_END
300
COLUMN
  1
LINKEDTABLEDATACOLUMN_BEGIN
300

 91
        0
301
CUSTOMDATA
  1
DATAMAP_BEGIN
 90
        0
309
DATAMAP_END
309
LINKEDTABLEDATACOLUMN_END
  1
FORMATTEDTABLEDATACOLUMN_BEGIN
300
COLUMNTABLEFORMAT
  1
TABLEFORMAT_BEGIN
 90
        3
170
     1
 91
      128
 92
        0
 62
   257
 93
        1
300
CONTENTFORMAT
  1
CONTENTFORMAT_BEGIN
 90
      128
 91
        0
 92
      512
 93
        0
300

 40
0.0
140
1.0
 94
        1
 62
     0
340
0
144
0.225
309
CONTENTFORMAT_END
171
     0
 94
        0
309
TABLEFORMAT_END
309
FORMATTEDTABLEDATACOLUMN_END
  1
TABLECOLUMN_BEGIN
 90
        0
 40
37.5
309
TABLECOLUMN_END
300
COLUMN
  1
LINKEDTABLEDATACOLUMN_BEGIN
300

 91
        0
301
CUSTOMDATA
  1
DATAMAP_BEGIN
 90
        0
309
DATAMAP_END
309
LINKEDTABLEDATACOLUMN_END
  1
FORMATTEDTABLEDATACOLUMN_BEGIN
300
COLUMNTABLEFORMAT
  1
TABLEFORMAT_BEGIN
 90
        3
170
     1
 91
      128
 92
        0
 62
   257
 93
        1
300
CONTENTFORMAT
  1
CONTENTFORMAT_BEGIN
 90
      128
 91
        0
 92
      512
 93
        0
300

 40
0.0
140
1.0
 94
        1
 62
     0
340
0
144
0.225
309
CONTENTFORMAT_END
171
     0
 94
        0
309
TABLEFORMAT_END
309
FORMATTEDTABLEDATACOLUMN_END
  1
TABLECOLUMN_BEGIN
 90
        0
 40
325.0
309
TABLECOLUMN_END
 91
        5
301
ROW
  1
LINKEDTABLEDATAROW_BEGIN
 90
        4
300
CELL
  1
LINKEDTABLEDATACELL_BEGIN
 90
        0
300

 91
        0
301
CUSTOMDATA
  1
DATAMAP_BEGIN
 90
        0
309
DATAMAP_END
 92
        0
 95
        1
302
CONTENT
  1
CELLCONTENT_BEGIN
 90
        1
300
VALUE
 93
        4
 90
        4
  1
符号
 94
        0
300

302
符号
304
ACVALUE_END
 91
        0
309
CELLCONTENT_END
  1
FORMATTEDCELLCONTENT_BEGIN
170
     1
300
CONTENTFORMAT
  1
CONTENTFORMAT_BEGIN
 90
      129
 91
        0
 92
        4
 93
        0
300

 40
0.0
140
1.0
 94
        1
 62
     0
340
0
144
7.5
309
CONTENTFORMAT_END
309
FORMATTEDCELLCONTENT_END
309
LINKEDTABLEDATACELL_END
  1
FORMATTEDTABLEDATACELL_BEGIN
300
CELLTABLEFORMAT
  1
TABLEFORMAT_BEGIN
 90
        1
170
     1
 91
   408576
 92
        0
 62
   257
 93
        1
300
CONTENTFORMAT
  1
CONTENTFORMAT_BEGIN
 90
        0
 91
        0
 92
      512
 93
        0
300

 40
0.0
140
1.0
 94
        1
 62
     0
340
0
144
0.18
309
CONTENTFORMAT_END
171
     1
301
MARGIN
  1
CELLMARGIN_BEGIN
 40
1.875
 40
1.875
 40
1.875
 40
1.875
 40
1.875
 40
1.875
309
CELLMARGIN_END
 94
        0
309
TABLEFORMAT_END
309
FORMATTEDTABLEDATACELL_END
  1
TABLECELL_BEGIN
 90
        2
 91
        0
309
TABLECELL_END
300
CELL
  1
LINKEDTABLEDATACELL_BEGIN
 90
        0
300

 91
        0
301
CUSTOMDATA
  1
DATAMAP_BEGIN
 90
        0
309
DATAMAP_END
 92
        0
 95
        1
302
CONTENT
  1
CELLCONTENT_BEGIN
 90
        1
300
VALUE
 93
        4
 90
        4
  1
日付
 94
        0
300

302
日付
304
ACVALUE_END
 91
        0
309
CELLCONTENT_END
  1
FORMATTEDCELLCONTENT_BEGIN
170
     1
300
CONTENTFORMAT
  1
CONTENTFORMAT_BEGIN
 90
      129
 91
        0
 92
        4
 93
        0
300

 40
0.0
140
1.0
 94
        1
 62
     0
340
0
144
7.5
309
CONTENTFORMAT_END
309
FORMATTEDCELLCONTENT_END
309
LINKEDTABLEDATACELL_END
  1
FORMATTEDTABLEDATACELL_BEGIN
300
CELLTABLEFORMAT
  1
TABLEFORMAT_BEGIN
 90
        1
170
     1
 91
   408576
 92
        0
 62
   257
 93
        1
300
CONTENTFORMAT
  1
CONTENTFORMAT_BEGIN
 90
        0
 91
        0
 92
      512
 93
        0
300

 40
0.0
140
1.0
 94
        1
 62
     0
340
0
144
0.18
309
CONTENTFORMAT_END
171
     1
301
MARGIN
  1
CELLMARGIN_BEGIN
 40
1.875
 40
1.875
 40
1.875
 40
1.875
 40
1.875
 40
1.875
309
CELLMARGIN_END
 94
        0
309
TABLEFORMAT_END
309
FORMATTEDTABLEDATACELL_END
  1
TABLECELL_BEGIN
 90
        2
 91
        0
309
TABLECELL_END
300
CELL
  1
LINKEDTABLEDATACELL_BEGIN
 90
        0
300

 91
        0
301
CUSTOMDATA
  1
DATAMAP_BEGIN
 90
        0
309
DATAMAP_END
 92
        0
 95
        1
302
CONTENT
  1
CELLCONTENT_BEGIN
 90
        1
300
VALUE
 93
        4
 90
        4
  1
訂正者
 94
        0
300

302
訂正者
304
ACVALUE_END
 91
        0
309
CELLCONTENT_END
  1
FORMATTEDCELLCONTENT_BEGIN
170
     1
300
CONTENTFORMAT
  1
CONTENTFORMAT_BEGIN
 90
      129
 91
        0
 92
        4
 93
        0
300

 40
0.0
140
1.0
 94
        1
 62
     0
340
0
144
7.5
309
CONTENTFORMAT_END
309
FORMATTEDCELLCONTENT_END
309
LINKEDTABLEDATACELL_END
  1
FORMATTEDTABLEDATACELL_BEGIN
300
CELLTABLEFORMAT
  1
TABLEFORMAT_BEGIN
 90
        1
170
     1
 91
   408576
 92
        0
 62
   257
 93
        1
300
CONTENTFORMAT
  1
CONTENTFORMAT_BEGIN
 90
        0
 91
        0
 92
      512
 93
        0
300

 40
0.0
140
1.0
 94
        1
 62
     0
340
0
144
0.18
309
CONTENTFORMAT_END
171
     1
301
MARGIN
  1
CELLMARGIN_BEGIN
 40
1.875
 40
1.875
 40
1.875
 40
1.875
 40
1.875
 40
1.875
309
CELLMARGIN_END
 94
        0
309
TABLEFORMAT_END
309
FORMATTEDTABLEDATACELL_END
  1
TABLECELL_BEGIN
 90
        2
 91
        0
309
TABLECELL_END
300
CELL
  1
LINKEDTABLEDATACELL_BEGIN
 90
        0
300

 91
        0
301
CUSTOMDATA
  1
DATAMAP_BEGIN
 90
        0
309
DATAMAP_END
 92
        0
 95
        1
302
CONTENT
  1
CELLCONTENT_BEGIN
 90
        1
300
VALUE
 93
        4
 90
        4
  1
訂正概要
 94
        0
300

302
訂正概要
304
ACVALUE_END
 91
        0
309
CELLCONTENT_END
  1
FORMATTEDCELLCONTENT_BEGIN
170
     1
300
CONTENTFORMAT
  1
CONTENTFORMAT_BEGIN
 90
      129
 91
        0
 92
        4
 93
        0
300

 40
0.0
140
1.0
 94
        1
 62
     0
340
0
144
7.5
309
CONTENTFORMAT_END
309
FORMATTEDCELLCONTENT_END
309
LINKEDTABLEDATACELL_END
  1
FORMATTEDTABLEDATACELL_BEGIN
300
CELLTABLEFORMAT
  1
TABLEFORMAT_BEGIN
 90
        1
170
     1
 91
   408576
 92
        0
 62
   257
 93
        1
300
CONTENTFORMAT
  1
CONTENTFORMAT_BEGIN
 90
        0
 91
        0
 92
      512
 93
        0
300

 40
0.0
140
1.0
 94
        1
 62
     0
340
0
144
0.18
309
CONTENTFORMAT_END
171
     1
301
MARGIN
  1
CELLMARGIN_BEGIN
 40
1.875
 40
1.875
 40
1.875
 40
1.875
 40
1.875
 40
1.875
309
CELLMARGIN_END
 94
        0
309
TABLEFORMAT_END
309
FORMATTEDTABLEDATACELL_END
  1
TABLECELL_BEGIN
 90
        2
 91
        0
309
TABLECELL_END
 91
        0
301
CUSTOMDATA
  1
DATAMAP_BEGIN
 90
        0
309
DATAMAP_END
309
LINKEDTABLEDATAROW_END
  1
FORMATTEDTABLEDATAROW_BEGIN
300
ROWTABLEFORMAT
  1
TABLEFORMAT_BEGIN
 90
        2
170
     1
 91
      128
 92
        0
 62
   257
 93
        1
300
CONTENTFORMAT
  1
CONTENTFORMAT_BEGIN
 90
      128
 91
        0
 92
      512
 93
        0
300

 40
0.0
140
1.0
 94
        1
 62
     0
340
0
144
7.5
309
CONTENTFORMAT_END
171
     0
 94
        0
309
TABLEFORMAT_END
309
FORMATTEDTABLEDATAROW_END
  1
TABLEROW_BEGIN
 90
        1
 40
13.75
309
TABLEROW_END
301
ROW
  1
LINKEDTABLEDATAROW_BEGIN
 90
        4
300
CELL
  1
LINKEDTABLEDATACELL_BEGIN
 90
        0
300

 91
        0
301
CUSTOMDATA
  1
DATAMAP_BEGIN
 90
        0
309
DATAMAP_END
 92
        0
 95
        3
302
CONTENT
  1
CELLCONTENT_BEGIN
 90
        1
300
VALUE
 93
        4
 90
        4
  1

 94
        0
300

302

304
ACVALUE_END
 91
        0
309
CELLCONTENT_END
  1
FORMATTEDCELLCONTENT_BEGIN
170
     1
300
CONTENTFORMAT
  1
CONTENTFORMAT_BEGIN
 90
      129
 91
        0
 92
        4
 93
        0
300

 40
0.0
140
1.0
 94
        1
 62
     0
340
0
144
7.5
309
CONTENTFORMAT_END
309
FORMATTEDCELLCONTENT_END
302
CONTENT
  1
CELLCONTENT_BEGIN
 90
        4
340
0
 91
        0
309
CELLCONTENT_END
  1
FORMATTEDCELLCONTENT_BEGIN
170
     1
300
CONTENTFORMAT
  1
CONTENTFORMAT_BEGIN
 90
        8
 91
        0
 92
      512
 93
        0
300

 40
0.0
140
1.0
 94
        1
 62
     0
340
0
144
0.18
309
CONTENTFORMAT_END
309
FORMATTEDCELLCONTENT_END
302
CONTENT
  1
CELLCONTENT_BEGIN
 90
        4
340
16B2
 91
        0
309
CELLCONTENT_END
  1
FORMATTEDCELLCONTENT_BEGIN
170
     1
300
CONTENTFORMAT
  1
CONTENTFORMAT_BEGIN
 90
      264
 91
      256
 92
      512
 93
        0
300

 40
0.0
140
1.0
 94
        1
 62
     0
340
0
144
0.18
309
CONTENTFORMAT_END
309
FORMATTEDCELLCONTENT_END
309
LINKEDTABLEDATACELL_END
  1
FORMATTEDTABLEDATACELL_BEGIN
300
CELLTABLEFORMAT
  1
TABLEFORMAT_BEGIN
 90
        1
170
     1
 91
   408592
 92
        0
 62
   257
 93
        1
300
CONTENTFORMAT
  1
CONTENTFORMAT_BEGIN
 90
       16
 91
        0
 92
      512
 93
        0
300

 40
0.0
140
1.0
 94
        5
 62
     0
340
0
144
0.18
309
CONTENTFORMAT_END
171
     1
301
MARGIN
  1
CELLMARGIN_BEGIN
 40
1.875
 40
1.875
 40
1.875
 40
1.875
 40
1.875
 40
1.875
309
CELLMARGIN_END
 94
        0
309
TABLEFORMAT_END
309
FORMATTEDTABLEDATACELL_END
  1
TABLECELL_BEGIN
 90
        3
 91
        0
309
TABLECELL_END
300
CELL
  1
LINKEDTABLEDATACELL_BEGIN
 90
        0
300

 91
        0
301
CUSTOMDATA
  1
DATAMAP_BEGIN
 90
        0
309
DATAMAP_END
 92
        0
 95
        1
302
CONTENT
  1
CELLCONTENT_BEGIN
 90
        1
300
VALUE
 93
        4
 90
        4
  1

 94
        0
300

302

304
ACVALUE_END
 91
        0
309
CELLCONTENT_END
  1
FORMATTEDCELLCONTENT_BEGIN
170
     1
300
CONTENTFORMAT
  1
CONTENTFORMAT_BEGIN
 90
      129
 91
        0
 92
        4
 93
        0
300

 40
0.0
140
1.0
 94
        1
 62
     0
340
0
144
7.5
309
CONTENTFORMAT_END
309
FORMATTEDCELLCONTENT_END
309
LINKEDTABLEDATACELL_END
  1
FORMATTEDTABLEDATACELL_BEGIN
300
CELLTABLEFORMAT
  1
TABLEFORMAT_BEGIN
 90
        1
170
     1
 91
   408592
 92
        0
 62
   257
 93
        1
300
CONTENTFORMAT
  1
CONTENTFORMAT_BEGIN
 90
       16
 91
        0
 92
      512
 93
        0
300

 40
0.0
140
1.0
 94
        5
 62
     0
340
0
144
0.18
309
CONTENTFORMAT_END
171
     1
301
MARGIN
  1
CELLMARGIN_BEGIN
 40
1.875
 40
1.875
 40
1.875
 40
1.875
 40
1.875
 40
1.875
309
CELLMARGIN_END
 94
        0
309
TABLEFORMAT_END
309
FORMATTEDTABLEDATACELL_END
  1
TABLECELL_BEGIN
 90
        3
 91
        0
309
TABLECELL_END
300
CELL
  1
LINKEDTABLEDATACELL_BEGIN
 90
        0
300

 91
        0
301
CUSTOMDATA
  1
DATAMAP_BEGIN
 90
        0
309
DATAMAP_END
 92
        0
 95
        1
302
CONTENT
  1
CELLCONTENT_BEGIN
 90
        1
300
VALUE
 93
        4
 90
        4
  1

 94
        0
300

302

304
ACVALUE_END
 91
        0
309
CELLCONTENT_END
  1
FORMATTEDCELLCONTENT_BEGIN
170
     1
300
CONTENTFORMAT
  1
CONTENTFORMAT_BEGIN
 90
      129
 91
        0
 92
        4
 93
        0
300

 40
0.0
140
1.0
 94
        1
 62
     0
340
0
144
7.5
309
CONTENTFORMAT_END
309
FORMATTEDCELLCONTENT_END
309
LINKEDTABLEDATACELL_END
  1
FORMATTEDTABLEDATACELL_BEGIN
300
CELLTABLEFORMAT
  1
TABLEFORMAT_BEGIN
 90
        1
170
     1
 91
   408592
 92
        0
 62
   257
 93
        1
300
CONTENTFORMAT
  1
CONTENTFORMAT_BEGIN
 90
       16
 91
        0
 92
      512
 93
        0
300

 40
0.0
140
1.0
 94
        5
 62
     0
340
0
144
0.18
309
CONTENTFORMAT_END
171
     1
301
MARGIN
  1
CELLMARGIN_BEGIN
 40
1.875
 40
1.875
 40
1.875
 40
1.875
 40
1.875
 40
1.875
309
CELLMARGIN_END
 94
        0
309
TABLEFORMAT_END
309
FORMATTEDTABLEDATACELL_END
  1
TABLECELL_BEGIN
 90
        3
 91
        0
309
TABLECELL_END
300
CELL
  1
LINKEDTABLEDATACELL_BEGIN
 90
        0
300

 91
        0
301
CUSTOMDATA
  1
DATAMAP_BEGIN
 90
        0
309
DATAMAP_END
 92
        0
 95
        1
302
CONTENT
  1
CELLCONTENT_BEGIN
 90
        1
300
VALUE
 93
        4
 90
        4
  1

 94
        0
300

302

304
ACVALUE_END
 91
        0
309
CELLCONTENT_END
  1
FORMATTEDCELLCONTENT_BEGIN
170
     1
300
CONTENTFORMAT
  1
CONTENTFORMAT_BEGIN
 90
      129
 91
        0
 92
        4
 93
        0
300

 40
0.0
140
1.0
 94
        1
 62
     0
340
0
144
7.5
309
CONTENTFORMAT_END
309
FORMATTEDCELLCONTENT_END
309
LINKEDTABLEDATACELL_END
  1
FORMATTEDTABLEDATACELL_BEGIN
300
CELLTABLEFORMAT
  1
TABLEFORMAT_BEGIN
 90
        1
170
     1
 91
   408592
 92
        0
 62
   257
 93
        1
300
CONTENTFORMAT
  1
CONTENTFORMAT_BEGIN
 90
       16
 91
        0
 92
      512
 93
        0
300

 40
0.0
140
1.0
 94
        4
 62
     0
340
0
144
0.18
309
CONTENTFORMAT_END
171
     1
301
MARGIN
  1
CELLMARGIN_BEGIN
 40
1.875
 40
1.875
 40
1.875
 40
1.875
 40
1.875
 40
1.875
309
CELLMARGIN_END
 94
        0
309
TABLEFORMAT_END
309
FORMATTEDTABLEDATACELL_END
  1
TABLECELL_BEGIN
 90
        3
 91
        0
309
TABLECELL_END
 91
        0
301
CUSTOMDATA
  1
DATAMAP_BEGIN
 90
        0
309
DATAMAP_END
309
LINKEDTABLEDATAROW_END
  1
FORMATTEDTABLEDATAROW_BEGIN
300
ROWTABLEFORMAT
  1
TABLEFORMAT_BEGIN
 90
        2
170
     1
 91
      128
 92
        0
 62
   257
 93
        1
300
CONTENTFORMAT
  1
CONTENTFORMAT_BEGIN
 90
      128
 91
        0
 92
      512
 93
        0
300

 40
0.0
140
1.0
 94
        1
 62
     0
340
0
144
7.5
309
CONTENTFORMAT_END
171
     0
 94
        0
309
TABLEFORMAT_END
309
FORMATTEDTABLEDATAROW_END
  1
TABLEROW_BEGIN
 90
        2
 40
13.75
309
TABLEROW_END
301
ROW
  1
LINKEDTABLEDATAROW_BEGIN
 90
        4
300
CELL
  1
LINKEDTABLEDATACELL_BEGIN
 90
        0
300

 91
        0
301
CUSTOMDATA
  1
DATAMAP_BEGIN
 90
        0
309
DATAMAP_END
 92
        0
 95
        2
302
CONTENT
  1
CELLCONTENT_BEGIN
 90
        1
300
VALUE
 93
        4
 90
        4
  1

 94
        0
300

302

304
ACVALUE_END
 91
        0
309
CELLCONTENT_END
  1
FORMATTEDCELLCONTENT_BEGIN
170
     1
300
CONTENTFORMAT
  1
CONTENTFORMAT_BEGIN
 90
      129
 91
        0
 92
        4
 93
        0
300

 40
0.0
140
1.0
 94
        1
 62
     0
340
0
144
7.5
309
CONTENTFORMAT_END
309
FORMATTEDCELLCONTENT_END
302
CONTENT
  1
CELLCONTENT_BEGIN
 90
        4
340
16C3
 91
        0
309
CELLCONTENT_END
  1
FORMATTEDCELLCONTENT_BEGIN
170
     1
300
CONTENTFORMAT
  1
CONTENTFORMAT_BEGIN
 90
      264
 91
      256
 92
      512
 93
        0
300

 40
0.0
140
1.0
 94
        1
 62
     0
340
0
144
0.18
309
CONTENTFORMAT_END
309
FORMATTEDCELLCONTENT_END
309
LINKEDTABLEDATACELL_END
  1
FORMATTEDTABLEDATACELL_BEGIN
300
CELLTABLEFORMAT
  1
TABLEFORMAT_BEGIN
 90
        1
170
     1
 91
   408592
 92
        0
 62
   257
 93
        1
300
CONTENTFORMAT
  1
CONTENTFORMAT_BEGIN
 90
       16
 91
        0
 92
      512
 93
        0
300

 40
0.0
140
1.0
 94
        5
 62
     0
340
0
144
0.18
309
CONTENTFORMAT_END
171
     1
301
MARGIN
  1
CELLMARGIN_BEGIN
 40
1.875
 40
1.875
 40
1.875
 40
1.875
 40
1.875
 40
1.875
309
CELLMARGIN_END
 94
        0
309
TABLEFORMAT_END
309
FORMATTEDTABLEDATACELL_END
  1
TABLECELL_BEGIN
 90
        3
 91
        0
309
TABLECELL_END
300
CELL
  1
LINKEDTABLEDATACELL_BEGIN
 90
        0
300

 91
        0
301
CUSTOMDATA
  1
DATAMAP_BEGIN
 90
        0
309
DATAMAP_END
 92
        0
 95
        1
302
CONTENT
  1
CELLCONTENT_BEGIN
 90
        1
300
VALUE
 93
        4
 90
        4
  1

 94
        0
300

302

304
ACVALUE_END
 91
        0
309
CELLCONTENT_END
  1
FORMATTEDCELLCONTENT_BEGIN
170
     1
300
CONTENTFORMAT
  1
CONTENTFORMAT_BEGIN
 90
      129
 91
        0
 92
        4
 93
        0
300

 40
0.0
140
1.0
 94
        1
 62
     0
340
0
144
7.5
309
CONTENTFORMAT_END
309
FORMATTEDCELLCONTENT_END
309
LINKEDTABLEDATACELL_END
  1
FORMATTEDTABLEDATACELL_BEGIN
300
CELLTABLEFORMAT
  1
TABLEFORMAT_BEGIN
 90
        1
170
     1
 91
   408592
 92
        0
 62
   257
 93
        1
300
CONTENTFORMAT
  1
CONTENTFORMAT_BEGIN
 90
       16
 91
        0
 92
      512
 93
        0
300

 40
0.0
140
1.0
 94
        5
 62
     0
340
0
144
0.18
309
CONTENTFORMAT_END
171
     1
301
MARGIN
  1
CELLMARGIN_BEGIN
 40
1.875
 40
1.875
 40
1.875
 40
1.875
 40
1.875
 40
1.875
309
CELLMARGIN_END
 94
        0
309
TABLEFORMAT_END
309
FORMATTEDTABLEDATACELL_END
  1
TABLECELL_BEGIN
 90
        3
 91
        0
309
TABLECELL_END
300
CELL
  1
LINKEDTABLEDATACELL_BEGIN
 90
        0
300

 91
        0
301
CUSTOMDATA
  1
DATAMAP_BEGIN
 90
        0
309
DATAMAP_END
 92
        0
 95
        1
302
CONTENT
  1
CELLCONTENT_BEGIN
 90
        1
300
VALUE
 93
        4
 90
        4
  1

 94
        0
300

302

304
ACVALUE_END
 91
        0
309
CELLCONTENT_END
  1
FORMATTEDCELLCONTENT_BEGIN
170
     1
300
CONTENTFORMAT
  1
CONTENTFORMAT_BEGIN
 90
      129
 91
        0
 92
        4
 93
        0
300

 40
0.0
140
1.0
 94
        1
 62
     0
340
0
144
7.5
309
CONTENTFORMAT_END
309
FORMATTEDCELLCONTENT_END
309
LINKEDTABLEDATACELL_END
  1
FORMATTEDTABLEDATACELL_BEGIN
300
CELLTABLEFORMAT
  1
TABLEFORMAT_BEGIN
 90
        1
170
     1
 91
   408592
 92
        0
 62
   257
 93
        1
300
CONTENTFORMAT
  1
CONTENTFORMAT_BEGIN
 90
       16
 91
        0
 92
      512
 93
        0
300

 40
0.0
140
1.0
 94
        5
 62
     0
340
0
144
0.18
309
CONTENTFORMAT_END
171
     1
301
MARGIN
  1
CELLMARGIN_BEGIN
 40
1.875
 40
1.875
 40
1.875
 40
1.875
 40
1.875
 40
1.875
309
CELLMARGIN_END
 94
        0
309
TABLEFORMAT_END
309
FORMATTEDTABLEDATACELL_END
  1
TABLECELL_BEGIN
 90
        3
 91
        0
309
TABLECELL_END
300
CELL
  1
LINKEDTABLEDATACELL_BEGIN
 90
        0
300

 91
        0
301
CUSTOMDATA
  1
DATAMAP_BEGIN
 90
        0
309
DATAMAP_END
 92
        0
 95
        1
302
CONTENT
  1
CELLCONTENT_BEGIN
 90
        1
300
VALUE
 93
        4
 90
        4
  1

 94
        0
300

302

304
ACVALUE_END
 91
        0
309
CELLCONTENT_END
  1
FORMATTEDCELLCONTENT_BEGIN
170
     1
300
CONTENTFORMAT
  1
CONTENTFORMAT_BEGIN
 90
      129
 91
        0
 92
        4
 93
        0
300

 40
0.0
140
1.0
 94
        1
 62
     0
340
0
144
7.5
309
CONTENTFORMAT_END
309
FORMATTEDCELLCONTENT_END
309
LINKEDTABLEDATACELL_END
  1
FORMATTEDTABLEDATACELL_BEGIN
300
CELLTABLEFORMAT
  1
TABLEFORMAT_BEGIN
 90
        1
170
     1
 91
   408592
 92
        0
 62
   257
 93
        1
300
CONTENTFORMAT
  1
CONTENTFORMAT_BEGIN
 90
       16
 91
        0
 92
      512
 93
        0
300

 40
0.0
140
1.0
 94
        4
 62
     0
340
0
144
0.18
309
CONTENTFORMAT_END
171
     1
301
MARGIN
  1
CELLMARGIN_BEGIN
 40
1.875
 40
1.875
 40
1.875
 40
1.875
 40
1.875
 40
1.875
309
CELLMARGIN_END
 94
        0
309
TABLEFORMAT_END
309
FORMATTEDTABLEDATACELL_END
  1
TABLECELL_BEGIN
 90
        3
 91
        0
309
TABLECELL_END
 91
        0
301
CUSTOMDATA
  1
DATAMAP_BEGIN
 90
        0
309
DATAMAP_END
309
LINKEDTABLEDATAROW_END
  1
FORMATTEDTABLEDATAROW_BEGIN
300
ROWTABLEFORMAT
  1
TABLEFORMAT_BEGIN
 90
        2
170
     1
 91
      128
 92
        0
 62
   257
 93
        1
300
CONTENTFORMAT
  1
CONTENTFORMAT_BEGIN
 90
      128
 91
        0
 92
      512
 93
        0
300

 40
0.0
140
1.0
 94
        1
 62
     0
340
0
144
7.5
309
CONTENTFORMAT_END
171
     0
 94
        0
309
TABLEFORMAT_END
309
FORMATTEDTABLEDATAROW_END
  1
TABLEROW_BEGIN
 90
        3
 40
13.75
309
TABLEROW_END
301
ROW
  1
LINKEDTABLEDATAROW_BEGIN
 90
        4
300
CELL
  1
LINKEDTABLEDATACELL_BEGIN
 90
        0
300

 91
        0
301
CUSTOMDATA
  1
DATAMAP_BEGIN
 90
        0
309
DATAMAP_END
 92
        0
 95
        2
302
CONTENT
  1
CELLCONTENT_BEGIN
 90
        1
300
VALUE
 93
        4
 90
        4
  1

 94
        0
300

302

304
ACVALUE_END
 91
        0
309
CELLCONTENT_END
  1
FORMATTEDCELLCONTENT_BEGIN
170
     1
300
CONTENTFORMAT
  1
CONTENTFORMAT_BEGIN
 90
      129
 91
        0
 92
        4
 93
        0
300

 40
0.0
140
1.0
 94
        1
 62
     0
340
0
144
7.5
309
CONTENTFORMAT_END
309
FORMATTEDCELLCONTENT_END
302
CONTENT
  1
CELLCONTENT_BEGIN
 90
        4
340
16D4
 91
        0
309
CELLCONTENT_END
  1
FORMATTEDCELLCONTENT_BEGIN
170
     1
300
CONTENTFORMAT
  1
CONTENTFORMAT_BEGIN
 90
      264
 91
      256
 92
      512
 93
        0
300

 40
0.0
140
1.0
 94
        1
 62
     0
340
0
144
0.18
309
CONTENTFORMAT_END
309
FORMATTEDCELLCONTENT_END
309
LINKEDTABLEDATACELL_END
  1
FORMATTEDTABLEDATACELL_BEGIN
300
CELLTABLEFORMAT
  1
TABLEFORMAT_BEGIN
 90
        1
170
     1
 91
   408592
 92
        0
 62
   257
 93
        1
300
CONTENTFORMAT
  1
CONTENTFORMAT_BEGIN
 90
       16
 91
        0
 92
      512
 93
        0
300

 40
0.0
140
1.0
 94
        5
 62
     0
340
0
144
0.18
309
CONTENTFORMAT_END
171
     1
301
MARGIN
  1
CELLMARGIN_BEGIN
 40
1.875
 40
1.875
 40
1.875
 40
1.875
 40
1.875
 40
1.875
309
CELLMARGIN_END
 94
        0
309
TABLEFORMAT_END
309
FORMATTEDTABLEDATACELL_END
  1
TABLECELL_BEGIN
 90
        3
 91
        0
309
TABLECELL_END
300
CELL
  1
LINKEDTABLEDATACELL_BEGIN
 90
        0
300

 91
        0
301
CUSTOMDATA
  1
DATAMAP_BEGIN
 90
        0
309
DATAMAP_END
 92
        0
 95
        1
302
CONTENT
  1
CELLCONTENT_BEGIN
 90
        1
300
VALUE
 93
        4
 90
        4
  1

 94
        0
300

302

304
ACVALUE_END
 91
        0
309
CELLCONTENT_END
  1
FORMATTEDCELLCONTENT_BEGIN
170
     1
300
CONTENTFORMAT
  1
CONTENTFORMAT_BEGIN
 90
      129
 91
        0
 92
        4
 93
        0
300

 40
0.0
140
1.0
 94
        1
 62
     0
340
0
144
7.5
309
CONTENTFORMAT_END
309
FORMATTEDCELLCONTENT_END
309
LINKEDTABLEDATACELL_END
  1
FORMATTEDTABLEDATACELL_BEGIN
300
CELLTABLEFORMAT
  1
TABLEFORMAT_BEGIN
 90
        1
170
     1
 91
   408592
 92
        0
 62
   257
 93
        1
300
CONTENTFORMAT
  1
CONTENTFORMAT_BEGIN
 90
       16
 91
        0
 92
      512
 93
        0
300

 40
0.0
140
1.0
 94
        5
 62
     0
340
0
144
0.18
309
CONTENTFORMAT_END
171
     1
301
MARGIN
  1
CELLMARGIN_BEGIN
 40
1.875
 40
1.875
 40
1.875
 40
1.875
 40
1.875
 40
1.875
309
CELLMARGIN_END
 94
        0
309
TABLEFORMAT_END
309
FORMATTEDTABLEDATACELL_END
  1
TABLECELL_BEGIN
 90
        3
 91
        0
309
TABLECELL_END
300
CELL
  1
LINKEDTABLEDATACELL_BEGIN
 90
        0
300

 91
        0
301
CUSTOMDATA
  1
DATAMAP_BEGIN
 90
        0
309
DATAMAP_END
 92
        0
 95
        1
302
CONTENT
  1
CELLCONTENT_BEGIN
 90
        1
300
VALUE
 93
        4
 90
        4
  1

 94
        0
300

302

304
ACVALUE_END
 91
        0
309
CELLCONTENT_END
  1
FORMATTEDCELLCONTENT_BEGIN
170
     1
300
CONTENTFORMAT
  1
CONTENTFORMAT_BEGIN
 90
      129
 91
        0
 92
        4
 93
        0
300

 40
0.0
140
1.0
 94
        1
 62
     0
340
0
144
7.5
309
CONTENTFORMAT_END
309
FORMATTEDCELLCONTENT_END
309
LINKEDTABLEDATACELL_END
  1
FORMATTEDTABLEDATACELL_BEGIN
300
CELLTABLEFORMAT
  1
TABLEFORMAT_BEGIN
 90
        1
170
     1
 91
   408592
 92
        0
 62
   257
 93
        1
300
CONTENTFORMAT
  1
CONTENTFORMAT_BEGIN
 90
       16
 91
        0
 92
      512
 93
        0
300

 40
0.0
140
1.0
 94
        5
 62
     0
340
0
144
0.18
309
CONTENTFORMAT_END
171
     1
301
MARGIN
  1
CELLMARGIN_BEGIN
 40
1.875
 40
1.875
 40
1.875
 40
1.875
 40
1.875
 40
1.875
309
CELLMARGIN_END
 94
        0
309
TABLEFORMAT_END
309
FORMATTEDTABLEDATACELL_END
  1
TABLECELL_BEGIN
 90
        3
 91
        0
309
TABLECELL_END
300
CELL
  1
LINKEDTABLEDATACELL_BEGIN
 90
        0
300

 91
        0
301
CUSTOMDATA
  1
DATAMAP_BEGIN
 90
        0
309
DATAMAP_END
 92
        0
 95
        1
302
CONTENT
  1
CELLCONTENT_BEGIN
 90
        1
300
VALUE
 93
        4
 90
        4
  1

 94
        0
300

302

304
ACVALUE_END
 91
        0
309
CELLCONTENT_END
  1
FORMATTEDCELLCONTENT_BEGIN
170
     1
300
CONTENTFORMAT
  1
CONTENTFORMAT_BEGIN
 90
      129
 91
        0
 92
        4
 93
        0
300

 40
0.0
140
1.0
 94
        1
 62
     0
340
0
144
7.5
309
CONTENTFORMAT_END
309
FORMATTEDCELLCONTENT_END
309
LINKEDTABLEDATACELL_END
  1
FORMATTEDTABLEDATACELL_BEGIN
300
CELLTABLEFORMAT
  1
TABLEFORMAT_BEGIN
 90
        1
170
     1
 91
   408592
 92
        0
 62
   257
 93
        1
300
CONTENTFORMAT
  1
CONTENTFORMAT_BEGIN
 90
       16
 91
        0
 92
      512
 93
        0
300

 40
0.0
140
1.0
 94
        4
 62
     0
340
0
144
0.18
309
CONTENTFORMAT_END
171
     1
301
MARGIN
  1
CELLMARGIN_BEGIN
 40
1.875
 40
1.875
 40
1.875
 40
1.875
 40
1.875
 40
1.875
309
CELLMARGIN_END
 94
        0
309
TABLEFORMAT_END
309
FORMATTEDTABLEDATACELL_END
  1
TABLECELL_BEGIN
 90
        3
 91
        0
309
TABLECELL_END
 91
        0
301
CUSTOMDATA
  1
DATAMAP_BEGIN
 90
        0
309
DATAMAP_END
309
LINKEDTABLEDATAROW_END
  1
FORMATTEDTABLEDATAROW_BEGIN
300
ROWTABLEFORMAT
  1
TABLEFORMAT_BEGIN
 90
        2
170
     1
 91
      128
 92
        0
 62
   257
 93
        1
300
CONTENTFORMAT
  1
CONTENTFORMAT_BEGIN
 90
      128
 91
        0
 92
      512
 93
        0
300

 40
0.0
140
1.0
 94
        1
 62
     0
340
0
144
7.5
309
CONTENTFORMAT_END
171
     0
 94
        0
309
TABLEFORMAT_END
309
FORMATTEDTABLEDATAROW_END
  1
TABLEROW_BEGIN
 90
        3
 40
13.75
309
TABLEROW_END
301
ROW
  1
LINKEDTABLEDATAROW_BEGIN
 90
        4
300
CELL
  1
LINKEDTABLEDATACELL_BEGIN
 90
        0
300

 91
        0
301
CUSTOMDATA
  1
DATAMAP_BEGIN
 90
        0
309
DATAMAP_END
 92
        0
 95
        2
302
CONTENT
  1
CELLCONTENT_BEGIN
 90
        1
300
VALUE
 93
        4
 90
        4
  1

 94
        0
300

302

304
ACVALUE_END
 91
        0
309
CELLCONTENT_END
  1
FORMATTEDCELLCONTENT_BEGIN
170
     1
300
CONTENTFORMAT
  1
CONTENTFORMAT_BEGIN
 90
      129
 91
        0
 92
        4
 93
        0
300

 40
0.0
140
1.0
 94
        1
 62
     0
340
0
144
7.5
309
CONTENTFORMAT_END
309
FORMATTEDCELLCONTENT_END
302
CONTENT
  1
CELLCONTENT_BEGIN
 90
        4
340
16E5
 91
        0
309
CELLCONTENT_END
  1
FORMATTEDCELLCONTENT_BEGIN
170
     1
300
CONTENTFORMAT
  1
CONTENTFORMAT_BEGIN
 90
      264
 91
      256
 92
      512
 93
        0
300

 40
0.0
140
1.0
 94
        1
 62
     0
340
0
144
0.18
309
CONTENTFORMAT_END
309
FORMATTEDCELLCONTENT_END
309
LINKEDTABLEDATACELL_END
  1
FORMATTEDTABLEDATACELL_BEGIN
300
CELLTABLEFORMAT
  1
TABLEFORMAT_BEGIN
 90
        1
170
     1
 91
   408592
 92
        0
 62
   257
 93
        1
300
CONTENTFORMAT
  1
CONTENTFORMAT_BEGIN
 90
       16
 91
        0
 92
      512
 93
        0
300

 40
0.0
140
1.0
 94
        5
 62
     0
340
0
144
0.18
309
CONTENTFORMAT_END
171
     1
301
MARGIN
  1
CELLMARGIN_BEGIN
 40
1.875
 40
1.875
 40
1.875
 40
1.875
 40
1.875
 40
1.875
309
CELLMARGIN_END
 94
        0
309
TABLEFORMAT_END
309
FORMATTEDTABLEDATACELL_END
  1
TABLECELL_BEGIN
 90
        3
 91
        0
309
TABLECELL_END
300
CELL
  1
LINKEDTABLEDATACELL_BEGIN
 90
        0
300

 91
        0
301
CUSTOMDATA
  1
DATAMAP_BEGIN
 90
        0
309
DATAMAP_END
 92
        0
 95
        1
302
CONTENT
  1
CELLCONTENT_BEGIN
 90
        1
300
VALUE
 93
        4
 90
        4
  1

 94
        0
300

302

304
ACVALUE_END
 91
        0
309
CELLCONTENT_END
  1
FORMATTEDCELLCONTENT_BEGIN
170
     1
300
CONTENTFORMAT
  1
CONTENTFORMAT_BEGIN
 90
      129
 91
        0
 92
        4
 93
        0
300

 40
0.0
140
1.0
 94
        1
 62
     0
340
0
144
7.5
309
CONTENTFORMAT_END
309
FORMATTEDCELLCONTENT_END
309
LINKEDTABLEDATACELL_END
  1
FORMATTEDTABLEDATACELL_BEGIN
300
CELLTABLEFORMAT
  1
TABLEFORMAT_BEGIN
 90
        1
170
     1
 91
   408592
 92
        0
 62
   257
 93
        1
300
CONTENTFORMAT
  1
CONTENTFORMAT_BEGIN
 90
       16
 91
        0
 92
      512
 93
        0
300

 40
0.0
140
1.0
 94
        5
 62
     0
340
0
144
0.18
309
CONTENTFORMAT_END
171
     1
301
MARGIN
  1
CELLMARGIN_BEGIN
 40
1.875
 40
1.875
 40
1.875
 40
1.875
 40
1.875
 40
1.875
309
CELLMARGIN_END
 94
        0
309
TABLEFORMAT_END
309
FORMATTEDTABLEDATACELL_END
  1
TABLECELL_BEGIN
 90
        3
 91
        0
309
TABLECELL_END
300
CELL
  1
LINKEDTABLEDATACELL_BEGIN
 90
        0
300

 91
        0
301
CUSTOMDATA
  1
DATAMAP_BEGIN
 90
        0
309
DATAMAP_END
 92
        0
 95
        1
302
CONTENT
  1
CELLCONTENT_BEGIN
 90
        1
300
VALUE
 93
        4
 90
        4
  1

 94
        0
300

302

304
ACVALUE_END
 91
        0
309
CELLCONTENT_END
  1
FORMATTEDCELLCONTENT_BEGIN
170
     1
300
CONTENTFORMAT
  1
CONTENTFORMAT_BEGIN
 90
      129
 91
        0
 92
        4
 93
        0
300

 40
0.0
140
1.0
 94
        1
 62
     0
340
0
144
7.5
309
CONTENTFORMAT_END
309
FORMATTEDCELLCONTENT_END
309
LINKEDTABLEDATACELL_END
  1
FORMATTEDTABLEDATACELL_BEGIN
300
CELLTABLEFORMAT
  1
TABLEFORMAT_BEGIN
 90
        1
170
     1
 91
   408592
 92
        0
 62
   257
 93
        1
300
CONTENTFORMAT
  1
CONTENTFORMAT_BEGIN
 90
       16
 91
        0
 92
      512
 93
        0
300

 40
0.0
140
1.0
 94
        5
 62
     0
340
0
144
0.18
309
CONTENTFORMAT_END
171
     1
301
MARGIN
  1
CELLMARGIN_BEGIN
 40
1.875
 40
1.875
 40
1.875
 40
1.875
 40
1.875
 40
1.875
309
CELLMARGIN_END
 94
        0
309
TABLEFORMAT_END
309
FORMATTEDTABLEDATACELL_END
  1
TABLECELL_BEGIN
 90
        3
 91
        0
309
TABLECELL_END
300
CELL
  1
LINKEDTABLEDATACELL_BEGIN
 90
        0
300

 91
        0
301
CUSTOMDATA
  1
DATAMAP_BEGIN
 90
        0
309
DATAMAP_END
 92
        0
 95
        1
302
CONTENT
  1
CELLCONTENT_BEGIN
 90
        1
300
VALUE
 93
        4
 90
        4
  1

 94
        0
300

302

304
ACVALUE_END
 91
        0
309
CELLCONTENT_END
  1
FORMATTEDCELLCONTENT_BEGIN
170
     1
300
CONTENTFORMAT
  1
CONTENTFORMAT_BEGIN
 90
      129
 91
        0
 92
        4
 93
        0
300

 40
0.0
140
1.0
 94
        1
 62
     0
340
0
144
7.5
309
CONTENTFORMAT_END
309
FORMATTEDCELLCONTENT_END
309
LINKEDTABLEDATACELL_END
  1
FORMATTEDTABLEDATACELL_BEGIN
300
CELLTABLEFORMAT
  1
TABLEFORMAT_BEGIN
 90
        1
170
     1
 91
   408592
 92
        0
 62
   257
 93
        1
300
CONTENTFORMAT
  1
CONTENTFORMAT_BEGIN
 90
       16
 91
        0
 92
      512
 93
        0
300

 40
0.0
140
1.0
 94
        4
 62
     0
340
0
144
0.18
309
CONTENTFORMAT_END
171
     1
301
MARGIN
  1
CELLMARGIN_BEGIN
 40
1.875
 40
1.875
 40
1.875
 40
1.875
 40
1.875
 40
1.875
309
CELLMARGIN_END
 94
        0
309
TABLEFORMAT_END
309
FORMATTEDTABLEDATACELL_END
  1
TABLECELL_BEGIN
 90
        3
 91
        0
309
TABLECELL_END
 91
        0
301
CUSTOMDATA
  1
DATAMAP_BEGIN
 90
        0
309
DATAMAP_END
309
LINKEDTABLEDATAROW_END
  1
FORMATTEDTABLEDATAROW_BEGIN
300
ROWTABLEFORMAT
  1
TABLEFORMAT_BEGIN
 90
        2
170
     1
 91
      128
 92
        0
 62
   257
 93
        1
300
CONTENTFORMAT
  1
CONTENTFORMAT_BEGIN
 90
      128
 91
        0
 92
      512
 93
        0
300

 40
0.0
140
1.0
 94
        1
 62
     0
340
0
144
7.5
309
CONTENTFORMAT_END
171
     0
 94
        0
309
TABLEFORMAT_END
309
FORMATTEDTABLEDATAROW_END
  1
TABLEROW_BEGIN
 90
        3
 40
13.75
309
TABLEROW_END
 92
        0
100
AcDbFormattedTableData
300
TABLEFORMAT
  1
TABLEFORMAT_BEGIN
 90
        4
170
     1
 91
   408576
 92
    65536
 62
   257
 93
        1
300
CONTENTFORMAT
  1
CONTENTFORMAT_BEGIN
 90
        0
 91
        0
 92
      512
 93
        0
300

 40
0.0
140
1.0
 94
        1
 62
     0
340
0
144
0.18
309
CONTENTFORMAT_END
171
     1
301
MARGIN
  1
CELLMARGIN_BEGIN
 40
1.875
 40
1.875
 40
1.875
 40
1.875
 40
0.075
 40
0.075
309
CELLMARGIN_END
 94
        0
309
TABLEFORMAT_END
 90
        0
100
AcDbTableContent
340
1661
  0
TABLEGEOMETRY
  5
1B27
330
1B2A
100
AcDbTableGeometry
 90
        5
 91
        4
 92
       20
 93
        0
 40
0.0
 41
0.0
330
0
 94
        0
 93
        0
 40
0.0
 41
0.0
330
0
 94
        0
 93
        0
 40
0.0
 41
0.0
330
0
 94
        0
 93
        0
 40
0.0
 41
0.0
330
0
 94
        0
 93
        0
 40
0.0
 41
0.0
330
0
 94
        0
 93
        0
 40
0.0
 41
0.0
330
0
 94
        0
 93
        0
 40
0.0
 41
0.0
330
0
 94
        0
 93
        0
 40
0.0
 41
0.0
330
0
 94
        0
 93
        0
 40
0.0
 41
0.0
330
0
 94
        0
 93
        0
 40
0.0
 41
0.0
330
0
 94
        0
 93
        0
 40
0.0
 41
0.0
330
0
 94
        0
 93
        0
 40
0.0
 41
0.0
330
0
 94
        0
 93
        0
 40
0.0
 41
0.0
330
0
 94
        0
 93
        0
 40
0.0
 41
0.0
330
0
 94
        0
 93
        0
 40
0.0
 41
0.0
330
0
 94
        0
 93
        0
 40
0.0
 41
0.0
330
0
 94
        0
 93
        0
 40
0.0
 41
0.0
330
0
 94
        0
 93
        0
 40
0.0
 41
0.0
330
0
 94
        0
 93
        0
 40
0.0
 41
0.0
330
0
 94
        0
 93
        0
 40
0.0
 41
0.0
330
0
 94
        0
  0
DICTIONARY
  5
1904
102
{ACAD_REACTORS
330
1903
102
}
330
1903
100
AcDbDictionary
281
     1
  0
DICTIONARY
  5
1908
102
{ACAD_REACTORS
330
1907
102
}
330
1907
100
AcDbDictionary
281
     1
  0
DICTIONARY
  5
190C
102
{ACAD_REACTORS
330
190B
102
}
330
190B
100
AcDbDictionary
281
     1
  0
DICTIONARY
  5
1910
102
{ACAD_REACTORS
330
190F
102
}
330
190F
100
AcDbDictionary
281
     1
  0
DICTIONARY
  5
1914
102
{ACAD_REACTORS
330
1913
102
}
330
1913
100
AcDbDictionary
281
     1
  0
DICTIONARY
  5
1918
102
{ACAD_REACTORS
330
1917
102
}
330
1917
100
AcDbDictionary
281
     1
  0
DICTIONARY
  5
191D
102
{ACAD_REACTORS
330
191C
102
}
330
191C
100
AcDbDictionary
281
     1
  0
DICTIONARY
  5
1921
102
{ACAD_REACTORS
330
1920
102
}
330
1920
100
AcDbDictionary
281
     1
  0
DICTIONARY
  5
1925
102
{ACAD_REACTORS
330
1924
102
}
330
1924
100
AcDbDictionary
281
     1
  0
DICTIONARY
  5
193C
102
{ACAD_REACTORS
330
193B
102
}
330
193B
100
AcDbDictionary
281
     1
  0
DICTIONARY
  5
1B5F
330
1661
100
AcDbDictionary
280
     1
281
     1
  3
ACAD_ROUNDTRIP_2008_TABLESTYLE_CELLSTYLEMAP
360
1B60
  0
DICTIONARY
  5
1B5D
330
15E9
100
AcDbDictionary
280
     1
281
     1
  3
ACAD_ROUNDTRIP_2008_TABLESTYLE_CELLSTYLEMAP
360
1B5E
  0
DICTIONARY
  5
1B33
330
15D0
100
AcDbDictionary
280
     1
281
     1
  3
ACAD_XREC_ROUNDTRIP
360
1B34
  0
DICTIONARY
  5
1B39
330
15D3
100
AcDbDictionary
280
     1
281
     1
  3
ACAD_XREC_ROUNDTRIP
360
1B3A
  0
DICTIONARY
  5
1B41
330
15D7
100
AcDbDictionary
280
     1
281
     1
  3
ACAD_XREC_ROUNDTRIP
360
1B42
  0
DICTIONARY
  5
1B49
330
15DB
100
AcDbDictionary
280
     1
281
     1
  3
ACAD_XREC_ROUNDTRIP
360
1B4A
  0
DICTIONARY
  5
1B3D
330
15D5
100
AcDbDictionary
280
     1
281
     1
  3
ACAD_XREC_ROUNDTRIP
360
1B3E
  0
DICTIONARY
  5
1B3F
330
15D6
100
AcDbDictionary
280
     1
281
     1
  3
ACAD_XREC_ROUNDTRIP
360
1B40
  0
DICTIONARY
  5
1B4F
330
15DE
100
AcDbDictionary
280
     1
281
     1
  3
ACAD_XREC_ROUNDTRIP
360
1B50
  0
DICTIONARY
  5
1B47
330
15DA
100
AcDbDictionary
280
     1
281
     1
  3
ACAD_XREC_ROUNDTRIP
360
1B48
  0
DICTIONARY
  5
1B2B
330
15CC
100
AcDbDictionary
280
     1
281
     1
  3
ACAD_XREC_ROUNDTRIP
360
1B2C
  0
DICTIONARY
  5
1B2D
330
15CD
100
AcDbDictionary
280
     1
281
     1
  3
ACAD_XREC_ROUNDTRIP
360
1B2E
  0
DICTIONARY
  5
1B2F
330
15CE
100
AcDbDictionary
280
     1
281
     1
  3
ACAD_XREC_ROUNDTRIP
360
1B30
  0
DICTIONARY
  5
1B31
330
15CF
100
AcDbDictionary
280
     1
281
     1
  3
ACAD_XREC_ROUNDTRIP
360
1B32
  0
DICTIONARY
  5
1B37
330
15D2
100
AcDbDictionary
280
     1
281
     1
  3
ACAD_XREC_ROUNDTRIP
360
1B38
  0
DICTIONARY
  5
1B4B
330
15DC
100
AcDbDictionary
280
     1
281
     1
  3
ACAD_XREC_ROUNDTRIP
360
1B4C
  0
DICTIONARY
  5
1B45
330
15D9
100
AcDbDictionary
280
     1
281
     1
  3
ACAD_XREC_ROUNDTRIP
360
1B46
  0
DICTIONARY
  5
1B5B
330
15EC
100
AcDbDictionary
280
     1
281
     1
  3
ACAD_XREC_ROUNDTRIP
360
1B5C
  0
DICTIONARY
  5
1B4D
330
15DD
100
AcDbDictionary
280
     1
281
     1
  3
ACAD_XREC_ROUNDTRIP
360
1B4E
  0
DICTIONARY
  5
1B3B
330
15D4
100
AcDbDictionary
280
     1
281
     1
  3
ACAD_XREC_ROUNDTRIP
360
1B3C
  0
DICTIONARY
  5
1B59
330
15E3
100
AcDbDictionary
280
     1
281
     1
  3
ACAD_XREC_ROUNDTRIP
360
1B5A
  0
DICTIONARY
  5
1B57
330
15E2
100
AcDbDictionary
280
     1
281
     1
  3
ACAD_XREC_ROUNDTRIP
360
1B58
  0
DICTIONARY
  5
1B51
330
15DF
100
AcDbDictionary
280
     1
281
     1
  3
ACAD_XREC_ROUNDTRIP
360
1B52
  0
DICTIONARY
  5
1B53
330
15E0
100
AcDbDictionary
280
     1
281
     1
  3
ACAD_XREC_ROUNDTRIP
360
1B54
  0
DICTIONARY
  5
1B43
330
15D8
100
AcDbDictionary
280
     1
281
     1
  3
ACAD_XREC_ROUNDTRIP
360
1B44
  0
DICTIONARY
  5
1B35
330
15D1
100
AcDbDictionary
280
     1
281
     1
  3
ACAD_XREC_ROUNDTRIP
360
1B36
  0
DICTIONARY
  5
1B55
330
15E1
100
AcDbDictionary
280
     1
281
     1
  3
ACAD_XREC_ROUNDTRIP
360
1B56
  0
CELLSTYLEMAP
  5
1B60
102
{ACAD_REACTORS
330
1B5F
102
}
330
1B5F
100
AcDbCellStyleMap
 90
        3
300
CELLSTYLE
  1
TABLEFORMAT_BEGIN
 90
        5
170
     1
 91
        0
 92
    32768
 62
   257
 93
        1
300
CONTENTFORMAT
  1
CONTENTFORMAT_BEGIN
 90
        0
 91
        0
 92
        4
 93
        0
300

 40
0.0
140
1.0
 94
        5
 62
     0
340
165C
144
1.0
309
CONTENTFORMAT_END
171
     1
301
MARGIN
  1
CELLMARGIN_BEGIN
 40
1.5
 40
1.5
 40
1.5
 40
1.5
 40
1.5
 40
1.5
309
CELLMARGIN_END
 94
        6
 95
        1
302
GRIDFORMAT
  1
GRIDFORMAT_BEGIN
 90
        0
 91
        1
 62
     0
 92
       -2
340
11
 93
        0
 40
0.045
309
GRIDFORMAT_END
 95
        2
302
GRIDFORMAT
  1
GRIDFORMAT_BEGIN
 90
        0
 91
        1
 62
     0
 92
       -2
340
11
 93
        0
 40
0.045
309
GRIDFORMAT_END
 95
        4
302
GRIDFORMAT
  1
GRIDFORMAT_BEGIN
 90
        0
 91
        1
 62
     0
 92
       -2
340
11
 93
        0
 40
0.045
309
GRIDFORMAT_END
 95
        8
302
GRIDFORMAT
  1
GRIDFORMAT_BEGIN
 90
        0
 91
        1
 62
     0
 92
       -2
340
11
 93
        0
 40
0.045
309
GRIDFORMAT_END
 95
       16
302
GRIDFORMAT
  1
GRIDFORMAT_BEGIN
 90
        0
 91
        1
 62
     0
 92
       -2
340
11
 93
        0
 40
0.045
309
GRIDFORMAT_END
 95
       32
302
GRIDFORMAT
  1
GRIDFORMAT_BEGIN
 90
        0
 91
        1
 62
     0
 92
       -2
340
11
 93
        0
 40
0.045
309
GRIDFORMAT_END
309
TABLEFORMAT_END
  1
CELLSTYLE_BEGIN
 90
        1
 91
        1
300
_TITLE
309
CELLSTYLE_END
300
CELLSTYLE
  1
TABLEFORMAT_BEGIN
 90
        5
170
     1
 91
        0
 92
        0
 62
   257
 93
        1
300
CONTENTFORMAT
  1
CONTENTFORMAT_BEGIN
 90
        0
 91
        0
 92
        4
 93
        0
300

 40
0.0
140
1.0
 94
        5
 62
     0
340
165C
144
6.0
309
CONTENTFORMAT_END
171
     1
301
MARGIN
  1
CELLMARGIN_BEGIN
 40
1.5
 40
1.5
 40
1.5
 40
1.5
 40
1.5
 40
1.5
309
CELLMARGIN_END
 94
        6
 95
        1
302
GRIDFORMAT
  1
GRIDFORMAT_BEGIN
 90
        0
 91
        1
 62
     0
 92
       -2
340
11
 93
        0
 40
0.045
309
GRIDFORMAT_END
 95
        2
302
GRIDFORMAT
  1
GRIDFORMAT_BEGIN
 90
        0
 91
        1
 62
     0
 92
       -2
340
11
 93
        0
 40
0.045
309
GRIDFORMAT_END
 95
        4
302
GRIDFORMAT
  1
GRIDFORMAT_BEGIN
 90
        0
 91
        1
 62
     0
 92
       -2
340
11
 93
        0
 40
0.045
309
GRIDFORMAT_END
 95
        8
302
GRIDFORMAT
  1
GRIDFORMAT_BEGIN
 90
        0
 91
        1
 62
     0
 92
       -2
340
11
 93
        0
 40
0.045
309
GRIDFORMAT_END
 95
       16
302
GRIDFORMAT
  1
GRIDFORMAT_BEGIN
 90
        0
 91
        1
 62
     0
 92
       -2
340
11
 93
        0
 40
0.045
309
GRIDFORMAT_END
 95
       32
302
GRIDFORMAT
  1
GRIDFORMAT_BEGIN
 90
        0
 91
        1
 62
     0
 92
       -2
340
11
 93
        0
 40
0.045
309
GRIDFORMAT_END
309
TABLEFORMAT_END
  1
CELLSTYLE_BEGIN
 90
        2
 91
        1
300
_HEADER
309
CELLSTYLE_END
300
CELLSTYLE
  1
TABLEFORMAT_BEGIN
 90
        5
170
     1
 91
        0
 92
        0
 62
   257
 93
        1
300
CONTENTFORMAT
  1
CONTENTFORMAT_BEGIN
 90
        0
 91
        0
 92
        4
 93
        0
300

 40
0.0
140
1.0
 94
        2
 62
     0
340
165C
144
6.0
309
CONTENTFORMAT_END
171
     1
301
MARGIN
  1
CELLMARGIN_BEGIN
 40
1.5
 40
1.5
 40
1.5
 40
1.5
 40
1.5
 40
1.5
309
CELLMARGIN_END
 94
        6
 95
        1
302
GRIDFORMAT
  1
GRIDFORMAT_BEGIN
 90
        0
 91
        1
 62
     0
 92
       -2
340
11
 93
        0
 40
0.045
309
GRIDFORMAT_END
 95
        2
302
GRIDFORMAT
  1
GRIDFORMAT_BEGIN
 90
        0
 91
        1
 62
     0
 92
       -2
340
11
 93
        0
 40
0.045
309
GRIDFORMAT_END
 95
        4
302
GRIDFORMAT
  1
GRIDFORMAT_BEGIN
 90
        0
 91
        1
 62
     0
 92
       -2
340
11
 93
        0
 40
0.045
309
GRIDFORMAT_END
 95
        8
302
GRIDFORMAT
  1
GRIDFORMAT_BEGIN
 90
        0
 91
        1
 62
     0
 92
       -2
340
11
 93
        0
 40
0.045
309
GRIDFORMAT_END
 95
       16
302
GRIDFORMAT
  1
GRIDFORMAT_BEGIN
 90
        0
 91
        1
 62
     0
 92
       -2
340
11
 93
        0
 40
0.045
309
GRIDFORMAT_END
 95
       32
302
GRIDFORMAT
  1
GRIDFORMAT_BEGIN
 90
        0
 91
        1
 62
     0
 92
       -2
340
11
 93
        0
 40
0.045
309
GRIDFORMAT_END
309
TABLEFORMAT_END
  1
CELLSTYLE_BEGIN
 90
        3
 91
        2
300
_DATA
309
CELLSTYLE_END
  0
CELLSTYLEMAP
  5
1B5E
102
{ACAD_REACTORS
330
1B5D
102
}
330
1B5D
100
AcDbCellStyleMap
 90
        3
300
CELLSTYLE
  1
TABLEFORMAT_BEGIN
 90
        5
170
     1
 91
        0
 92
    32768
 62
   257
 93
        1
300
CONTENTFORMAT
  1
CONTENTFORMAT_BEGIN
 90
        0
 91
        0
 92
        4
 93
        0
300

 40
0.0
140
1.0
 94
        5
 62
     0
340
17
144
0.25
309
CONTENTFORMAT_END
171
     1
301
MARGIN
  1
CELLMARGIN_BEGIN
 40
0.06
 40
0.06
 40
0.06
 40
0.06
 40
0.06
 40
0.06
309
CELLMARGIN_END
 94
        6
 95
        1
302
GRIDFORMAT
  1
GRIDFORMAT_BEGIN
 90
        0
 91
        1
 62
     0
 92
       -2
340
11
 93
        0
 40
0.045
309
GRIDFORMAT_END
 95
        2
302
GRIDFORMAT
  1
GRIDFORMAT_BEGIN
 90
        0
 91
        1
 62
     0
 92
       -2
340
11
 93
        0
 40
0.045
309
GRIDFORMAT_END
 95
        4
302
GRIDFORMAT
  1
GRIDFORMAT_BEGIN
 90
        0
 91
        1
 62
     0
 92
       -2
340
11
 93
        0
 40
0.045
309
GRIDFORMAT_END
 95
        8
302
GRIDFORMAT
  1
GRIDFORMAT_BEGIN
 90
        0
 91
        1
 62
     0
 92
       -2
340
11
 93
        0
 40
0.045
309
GRIDFORMAT_END
 95
       16
302
GRIDFORMAT
  1
GRIDFORMAT_BEGIN
 90
        0
 91
        1
 62
     0
 92
       -2
340
11
 93
        0
 40
0.045
309
GRIDFORMAT_END
 95
       32
302
GRIDFORMAT
  1
GRIDFORMAT_BEGIN
 90
        0
 91
        1
 62
     0
 92
       -2
340
11
 93
        0
 40
0.045
309
GRIDFORMAT_END
309
TABLEFORMAT_END
  1
CELLSTYLE_BEGIN
 90
        1
 91
        1
300
_TITLE
309
CELLSTYLE_END
300
CELLSTYLE
  1
TABLEFORMAT_BEGIN
 90
        5
170
     1
 91
        0
 92
        0
 62
   257
 93
        1
300
CONTENTFORMAT
  1
CONTENTFORMAT_BEGIN
 90
        0
 91
        0
 92
        4
 93
        0
300

 40
0.0
140
1.0
 94
        5
 62
     0
340
17
144
0.18
309
CONTENTFORMAT_END
171
     1
301
MARGIN
  1
CELLMARGIN_BEGIN
 40
0.06
 40
0.06
 40
0.06
 40
0.06
 40
0.06
 40
0.06
309
CELLMARGIN_END
 94
        6
 95
        1
302
GRIDFORMAT
  1
GRIDFORMAT_BEGIN
 90
        0
 91
        1
 62
     0
 92
       -2
340
11
 93
        0
 40
0.045
309
GRIDFORMAT_END
 95
        2
302
GRIDFORMAT
  1
GRIDFORMAT_BEGIN
 90
        0
 91
        1
 62
     0
 92
       -2
340
11
 93
        0
 40
0.045
309
GRIDFORMAT_END
 95
        4
302
GRIDFORMAT
  1
GRIDFORMAT_BEGIN
 90
        0
 91
        1
 62
     0
 92
       -2
340
11
 93
        0
 40
0.045
309
GRIDFORMAT_END
 95
        8
302
GRIDFORMAT
  1
GRIDFORMAT_BEGIN
 90
        0
 91
        1
 62
     0
 92
       -2
340
11
 93
        0
 40
0.045
309
GRIDFORMAT_END
 95
       16
302
GRIDFORMAT
  1
GRIDFORMAT_BEGIN
 90
        0
 91
        1
 62
     0
 92
       -2
340
11
 93
        0
 40
0.045
309
GRIDFORMAT_END
 95
       32
302
GRIDFORMAT
  1
GRIDFORMAT_BEGIN
 90
        0
 91
        1
 62
     0
 92
       -2
340
11
 93
        0
 40
0.045
309
GRIDFORMAT_END
309
TABLEFORMAT_END
  1
CELLSTYLE_BEGIN
 90
        2
 91
        1
300
_HEADER
309
CELLSTYLE_END
300
CELLSTYLE
  1
TABLEFORMAT_BEGIN
 90
        5
170
     1
 91
        0
 92
        0
 62
   257
 93
        1
300
CONTENTFORMAT
  1
CONTENTFORMAT_BEGIN
 90
        0
 91
        0
 92
        4
 93
        0
300

 40
0.0
140
1.0
 94
        2
 62
     0
340
17
144
0.18
309
CONTENTFORMAT_END
171
     1
301
MARGIN
  1
CELLMARGIN_BEGIN
 40
0.06
 40
0.06
 40
0.06
 40
0.06
 40
0.06
 40
0.06
309
CELLMARGIN_END
 94
        6
 95
        1
302
GRIDFORMAT
  1
GRIDFORMAT_BEGIN
 90
        0
 91
        1
 62
     0
 92
       -2
340
11
 93
        0
 40
0.045
309
GRIDFORMAT_END
 95
        2
302
GRIDFORMAT
  1
GRIDFORMAT_BEGIN
 90
        0
 91
        1
 62
     0
 92
       -2
340
11
 93
        0
 40
0.045
309
GRIDFORMAT_END
 95
        4
302
GRIDFORMAT
  1
GRIDFORMAT_BEGIN
 90
        0
 91
        1
 62
     0
 92
       -2
340
11
 93
        0
 40
0.045
309
GRIDFORMAT_END
 95
        8
302
GRIDFORMAT
  1
GRIDFORMAT_BEGIN
 90
        0
 91
        1
 62
     0
 92
       -2
340
11
 93
        0
 40
0.045
309
GRIDFORMAT_END
 95
       16
302
GRIDFORMAT
  1
GRIDFORMAT_BEGIN
 90
        0
 91
        1
 62
     0
 92
       -2
340
11
 93
        0
 40
0.045
309
GRIDFORMAT_END
 95
       32
302
GRIDFORMAT
  1
GRIDFORMAT_BEGIN
 90
        0
 91
        1
 62
     0
 92
       -2
340
11
 93
        0
 40
0.045
309
GRIDFORMAT_END
309
TABLEFORMAT_END
  1
CELLSTYLE_BEGIN
 90
        3
 91
        2
300
_DATA
309
CELLSTYLE_END
  0
XRECORD
  5
1B34
102
{ACAD_REACTORS
330
1B33
102
}
330
1B33
100
AcDbXrecord
280
     1
102
RTVSPost2010Prop28
280
     1
102
RTVSPost2010PropOp28
 70
     1
102
RTVSPost2010Prop29
280
     1
102
RTVSPost2010PropOp29
 70
     1
102
RTVSPost2010Prop30
280
     0
102
RTVSPost2010PropOp30
 70
     1
102
RTVSPost2010Prop31
280
     0
102
RTVSPost2010PropOp31
 70
     1
102
RTVSPost2010Prop32
280
     0
102
RTVSPost2010PropOp32
 70
     1
102
RTVSPost2010Prop33
280
     0
102
RTVSPost2010PropOp33
 70
     1
102
RTVSPost2010Prop34
280
     0
102
RTVSPost2010PropOp34
 70
     1
102
RTVSPost2010Prop35
280
     0
102
RTVSPost2010PropOp35
 70
     1
102
RTVSPost2010Prop36
280
     0
102
RTVSPost2010PropOp36
 70
     1
102
RTVSPost2010Prop37
 90
       50
102
RTVSPost2010PropOp37
 70
     1
102
RTVSPost2010Prop38
140
0.0
102
RTVSPost2010PropOp38
 70
     1
102
RTVSPost2010Prop39
140
1.0
102
RTVSPost2010PropOp39
 70
     1
102
RTVSPost2010Prop40
 90
        0
102
RTVSPost2010PropOp40
 70
     1
102
RTVSPost2010Prop41ColorIndex
 90
       18
102
RTVSPost2010Prop41ColorRGB
 90
        0
102
RTVSPost2010PropOp41
 70
     1
102
RTVSPost2010Prop42
 90
       50
102
RTVSPost2010PropOp42
 70
     1
102
RTVSPost2010Prop43
 90
        3
102
RTVSPost2010PropOp43
 70
     1
102
RTVSPost2010Prop44ColorIndex
 90
        5
102
RTVSPost2010Prop44ColorRGB
 90
      255
102
RTVSPost2010PropOp44
 70
     1
102
RTVSPost2010Prop45
280
     0
102
RTVSPost2010PropOp45
 70
     1
102
RTVSPost2010Prop46
 90
       50
102
RTVSPost2010PropOp46
 70
     1
102
RTVSPost2010Prop47
 90
       50
102
RTVSPost2010PropOp47
 70
     1
102
RTVSPost2010Prop48
 90
       50
102
RTVSPost2010PropOp48
 70
     1
102
RTVSPost2010Prop49
280
     0
102
RTVSPost2010PropOp49
 70
     1
102
RTVSPost2010Prop50
 90
       50
102
RTVSPost2010PropOp50
 70
     1
102
RTVSPost2010Prop51ColorIndex
 90
      256
102
RTVSPost2010Prop51ColorRGB
 90
-16777216
102
RTVSPost2010PropOp51
 70
     0
102
RTVSPost2010Prop52
140
1.0
102
RTVSPost2010PropOp52
 70
     0
102
RTVSPost2010Prop53
 90
        2
102
RTVSPost2010PropOp53
 70
     1
102
RTVSPost2010Prop54
  1
strokes_ogs.tif
102
RTVSPost2010PropOp54
 70
     1
102
RTVSPost2010Prop55
280
     0
102
RTVSPost2010PropOp55
 70
     1
102
RTVSPost2010Prop56
140
1.0
102
RTVSPost2010PropOp56
 70
     1
102
RTVSPost2010Prop57
140
1.0
102
RTVSPost2010PropOp57
 70
     1
  0
XRECORD
  5
1B3A
102
{ACAD_REACTORS
330
1B39
102
}
330
1B39
100
AcDbXrecord
280
     1
102
RTVSPost2010Prop28
280
     0
102
RTVSPost2010PropOp28
 70
     1
102
RTVSPost2010Prop29
280
     1
102
RTVSPost2010PropOp29
 70
     1
102
RTVSPost2010Prop30
280
     1
102
RTVSPost2010PropOp30
 70
     1
102
RTVSPost2010Prop31
280
     0
102
RTVSPost2010PropOp31
 70
     1
102
RTVSPost2010Prop32
280
     0
102
RTVSPost2010PropOp32
 70
     1
102
RTVSPost2010Prop33
280
     0
102
RTVSPost2010PropOp33
 70
     1
102
RTVSPost2010Prop34
280
     0
102
RTVSPost2010PropOp34
 70
     1
102
RTVSPost2010Prop35
280
     0
102
RTVSPost2010PropOp35
 70
     1
102
RTVSPost2010Prop36
280
     0
102
RTVSPost2010PropOp36
 70
     1
102
RTVSPost2010Prop37
 90
       50
102
RTVSPost2010PropOp37
 70
     1
102
RTVSPost2010Prop38
140
0.0
102
RTVSPost2010PropOp38
 70
     1
102
RTVSPost2010Prop39
140
1.0
102
RTVSPost2010PropOp39
 70
     1
102
RTVSPost2010Prop40
 90
        0
102
RTVSPost2010PropOp40
 70
     1
102
RTVSPost2010Prop41ColorIndex
 90
       18
102
RTVSPost2010Prop41ColorRGB
 90
        0
102
RTVSPost2010PropOp41
 70
     1
102
RTVSPost2010Prop42
 90
       50
102
RTVSPost2010PropOp42
 70
     1
102
RTVSPost2010Prop43
 90
        3
102
RTVSPost2010PropOp43
 70
     1
102
RTVSPost2010Prop44ColorIndex
 90
        5
102
RTVSPost2010Prop44ColorRGB
 90
      255
102
RTVSPost2010PropOp44
 70
     1
102
RTVSPost2010Prop45
280
     0
102
RTVSPost2010PropOp45
 70
     1
102
RTVSPost2010Prop46
 90
       50
102
RTVSPost2010PropOp46
 70
     1
102
RTVSPost2010Prop47
 90
       50
102
RTVSPost2010PropOp47
 70
     1
102
RTVSPost2010Prop48
 90
       50
102
RTVSPost2010PropOp48
 70
     1
102
RTVSPost2010Prop49
280
     0
102
RTVSPost2010PropOp49
 70
     1
102
RTVSPost2010Prop50
 90
       50
102
RTVSPost2010PropOp50
 70
     1
102
RTVSPost2010Prop51ColorIndex
 90
      256
102
RTVSPost2010Prop51ColorRGB
 90
-16777216
102
RTVSPost2010PropOp51
 70
     0
102
RTVSPost2010Prop52
140
1.0
102
RTVSPost2010PropOp52
 70
     0
102
RTVSPost2010Prop53
 90
        2
102
RTVSPost2010PropOp53
 70
     1
102
RTVSPost2010Prop54
  1
strokes_ogs.tif
102
RTVSPost2010PropOp54
 70
     1
102
RTVSPost2010Prop55
280
     0
102
RTVSPost2010PropOp55
 70
     1
102
RTVSPost2010Prop56
140
1.0
102
RTVSPost2010PropOp56
 70
     1
102
RTVSPost2010Prop57
140
1.0
102
RTVSPost2010PropOp57
 70
     1
  0
XRECORD
  5
1B42
102
{ACAD_REACTORS
330
1B41
102
}
330
1B41
100
AcDbXrecord
280
     1
102
RTVSPost2010Prop28
280
     0
102
RTVSPost2010PropOp28
 70
     1
102
RTVSPost2010Prop29
280
     1
102
RTVSPost2010PropOp29
 70
     1
102
RTVSPost2010Prop30
280
     1
102
RTVSPost2010PropOp30
 70
     1
102
RTVSPost2010Prop31
280
     0
102
RTVSPost2010PropOp31
 70
     1
102
RTVSPost2010Prop32
280
     0
102
RTVSPost2010PropOp32
 70
     1
102
RTVSPost2010Prop33
280
     0
102
RTVSPost2010PropOp33
 70
     1
102
RTVSPost2010Prop34
280
     0
102
RTVSPost2010PropOp34
 70
     1
102
RTVSPost2010Prop35
280
     0
102
RTVSPost2010PropOp35
 70
     1
102
RTVSPost2010Prop36
280
     0
102
RTVSPost2010PropOp36
 70
     1
102
RTVSPost2010Prop37
 90
       50
102
RTVSPost2010PropOp37
 70
     1
102
RTVSPost2010Prop38
140
0.0
102
RTVSPost2010PropOp38
 70
     1
102
RTVSPost2010Prop39
140
1.0
102
RTVSPost2010PropOp39
 70
     1
102
RTVSPost2010Prop40
 90
        0
102
RTVSPost2010PropOp40
 70
     1
102
RTVSPost2010Prop41ColorIndex
 90
       18
102
RTVSPost2010Prop41ColorRGB
 90
        0
102
RTVSPost2010PropOp41
 70
     1
102
RTVSPost2010Prop42
 90
       50
102
RTVSPost2010PropOp42
 70
     1
102
RTVSPost2010Prop43
 90
        3
102
RTVSPost2010PropOp43
 70
     1
102
RTVSPost2010Prop44ColorIndex
 90
        5
102
RTVSPost2010Prop44ColorRGB
 90
      255
102
RTVSPost2010PropOp44
 70
     1
102
RTVSPost2010Prop45
280
     0
102
RTVSPost2010PropOp45
 70
     1
102
RTVSPost2010Prop46
 90
       50
102
RTVSPost2010PropOp46
 70
     1
102
RTVSPost2010Prop47
 90
       50
102
RTVSPost2010PropOp47
 70
     1
102
RTVSPost2010Prop48
 90
       50
102
RTVSPost2010PropOp48
 70
     1
102
RTVSPost2010Prop49
280
     0
102
RTVSPost2010PropOp49
 70
     1
102
RTVSPost2010Prop50
 90
       50
102
RTVSPost2010PropOp50
 70
     1
102
RTVSPost2010Prop51ColorIndex
 90
      256
102
RTVSPost2010Prop51ColorRGB
 90
-16777216
102
RTVSPost2010PropOp51
 70
     0
102
RTVSPost2010Prop52
140
1.0
102
RTVSPost2010PropOp52
 70
     0
102
RTVSPost2010Prop53
 90
        2
102
RTVSPost2010PropOp53
 70
     1
102
RTVSPost2010Prop54
  1
strokes_ogs.tif
102
RTVSPost2010PropOp54
 70
     1
102
RTVSPost2010Prop55
280
     0
102
RTVSPost2010PropOp55
 70
     1
102
RTVSPost2010Prop56
140
1.0
102
RTVSPost2010PropOp56
 70
     1
102
RTVSPost2010Prop57
140
1.0
102
RTVSPost2010PropOp57
 70
     1
  0
XRECORD
  5
1B4A
102
{ACAD_REACTORS
330
1B49
102
}
330
1B49
100
AcDbXrecord
280
     1
102
RTVSPost2010Prop28
280
     0
102
RTVSPost2010PropOp28
 70
     1
102
RTVSPost2010Prop29
280
     1
102
RTVSPost2010PropOp29
 70
     1
102
RTVSPost2010Prop30
280
     1
102
RTVSPost2010PropOp30
 70
     1
102
RTVSPost2010Prop31
280
     0
102
RTVSPost2010PropOp31
 70
     1
102
RTVSPost2010Prop32
280
     0
102
RTVSPost2010PropOp32
 70
     1
102
RTVSPost2010Prop33
280
     0
102
RTVSPost2010PropOp33
 70
     1
102
RTVSPost2010Prop34
280
     0
102
RTVSPost2010PropOp34
 70
     1
102
RTVSPost2010Prop35
280
     0
102
RTVSPost2010PropOp35
 70
     1
102
RTVSPost2010Prop36
280
     0
102
RTVSPost2010PropOp36
 70
     1
102
RTVSPost2010Prop37
 90
       50
102
RTVSPost2010PropOp37
 70
     1
102
RTVSPost2010Prop38
140
0.0
102
RTVSPost2010PropOp38
 70
     1
102
RTVSPost2010Prop39
140
1.0
102
RTVSPost2010PropOp39
 70
     1
102
RTVSPost2010Prop40
 90
        0
102
RTVSPost2010PropOp40
 70
     1
102
RTVSPost2010Prop41ColorIndex
 90
       18
102
RTVSPost2010Prop41ColorRGB
 90
        0
102
RTVSPost2010PropOp41
 70
     1
102
RTVSPost2010Prop42
 90
       50
102
RTVSPost2010PropOp42
 70
     1
102
RTVSPost2010Prop43
 90
        3
102
RTVSPost2010PropOp43
 70
     1
102
RTVSPost2010Prop44ColorIndex
 90
        5
102
RTVSPost2010Prop44ColorRGB
 90
      255
102
RTVSPost2010PropOp44
 70
     1
102
RTVSPost2010Prop45
280
     0
102
RTVSPost2010PropOp45
 70
     1
102
RTVSPost2010Prop46
 90
       50
102
RTVSPost2010PropOp46
 70
     1
102
RTVSPost2010Prop47
 90
       50
102
RTVSPost2010PropOp47
 70
     1
102
RTVSPost2010Prop48
 90
       50
102
RTVSPost2010PropOp48
 70
     1
102
RTVSPost2010Prop49
280
     0
102
RTVSPost2010PropOp49
 70
     1
102
RTVSPost2010Prop50
 90
       50
102
RTVSPost2010PropOp50
 70
     1
102
RTVSPost2010Prop51ColorIndex
 90
      256
102
RTVSPost2010Prop51ColorRGB
 90
-16777216
102
RTVSPost2010PropOp51
 70
     0
102
RTVSPost2010Prop52
140
1.0
102
RTVSPost2010PropOp52
 70
     0
102
RTVSPost2010Prop53
 90
        2
102
RTVSPost2010PropOp53
 70
     1
102
RTVSPost2010Prop54
  1
strokes_ogs.tif
102
RTVSPost2010PropOp54
 70
     1
102
RTVSPost2010Prop55
280
     0
102
RTVSPost2010PropOp55
 70
     1
102
RTVSPost2010Prop56
140
1.0
102
RTVSPost2010PropOp56
 70
     1
102
RTVSPost2010Prop57
140
1.0
102
RTVSPost2010PropOp57
 70
     1
  0
XRECORD
  5
1B3E
102
{ACAD_REACTORS
330
1B3D
102
}
330
1B3D
100
AcDbXrecord
280
     1
102
RTVSPost2010Prop28
280
     0
102
RTVSPost2010PropOp28
 70
     1
102
RTVSPost2010Prop29
280
     1
102
RTVSPost2010PropOp29
 70
     1
102
RTVSPost2010Prop30
280
     1
102
RTVSPost2010PropOp30
 70
     1
102
RTVSPost2010Prop31
280
     0
102
RTVSPost2010PropOp31
 70
     1
102
RTVSPost2010Prop32
280
     0
102
RTVSPost2010PropOp32
 70
     1
102
RTVSPost2010Prop33
280
     0
102
RTVSPost2010PropOp33
 70
     1
102
RTVSPost2010Prop34
280
     0
102
RTVSPost2010PropOp34
 70
     1
102
RTVSPost2010Prop35
280
     0
102
RTVSPost2010PropOp35
 70
     1
102
RTVSPost2010Prop36
280
     0
102
RTVSPost2010PropOp36
 70
     1
102
RTVSPost2010Prop37
 90
       50
102
RTVSPost2010PropOp37
 70
     1
102
RTVSPost2010Prop38
140
0.0
102
RTVSPost2010PropOp38
 70
     1
102
RTVSPost2010Prop39
140
1.0
102
RTVSPost2010PropOp39
 70
     1
102
RTVSPost2010Prop40
 90
        0
102
RTVSPost2010PropOp40
 70
     1
102
RTVSPost2010Prop41ColorIndex
 90
       18
102
RTVSPost2010Prop41ColorRGB
 90
        0
102
RTVSPost2010PropOp41
 70
     1
102
RTVSPost2010Prop42
 90
       50
102
RTVSPost2010PropOp42
 70
     1
102
RTVSPost2010Prop43
 90
        3
102
RTVSPost2010PropOp43
 70
     1
102
RTVSPost2010Prop44ColorIndex
 90
        5
102
RTVSPost2010Prop44ColorRGB
 90
      255
102
RTVSPost2010PropOp44
 70
     1
102
RTVSPost2010Prop45
280
     0
102
RTVSPost2010PropOp45
 70
     1
102
RTVSPost2010Prop46
 90
       50
102
RTVSPost2010PropOp46
 70
     1
102
RTVSPost2010Prop47
 90
       50
102
RTVSPost2010PropOp47
 70
     1
102
RTVSPost2010Prop48
 90
       50
102
RTVSPost2010PropOp48
 70
     1
102
RTVSPost2010Prop49
280
     0
102
RTVSPost2010PropOp49
 70
     1
102
RTVSPost2010Prop50
 90
       50
102
RTVSPost2010PropOp50
 70
     1
102
RTVSPost2010Prop51ColorIndex
 90
      256
102
RTVSPost2010Prop51ColorRGB
 90
-16777216
102
RTVSPost2010PropOp51
 70
     0
102
RTVSPost2010Prop52
140
1.0
102
RTVSPost2010PropOp52
 70
     0
102
RTVSPost2010Prop53
 90
        2
102
RTVSPost2010PropOp53
 70
     1
102
RTVSPost2010Prop54
  1
strokes_ogs.tif
102
RTVSPost2010PropOp54
 70
     1
102
RTVSPost2010Prop55
280
     0
102
RTVSPost2010PropOp55
 70
     1
102
RTVSPost2010Prop56
140
1.0
102
RTVSPost2010PropOp56
 70
     1
102
RTVSPost2010Prop57
140
1.0
102
RTVSPost2010PropOp57
 70
     1
  0
XRECORD
  5
1B40
102
{ACAD_REACTORS
330
1B3F
102
}
330
1B3F
100
AcDbXrecord
280
     1
102
RTVSPost2010Prop28
280
     0
102
RTVSPost2010PropOp28
 70
     1
102
RTVSPost2010Prop29
280
     1
102
RTVSPost2010PropOp29
 70
     1
102
RTVSPost2010Prop30
280
     1
102
RTVSPost2010PropOp30
 70
     1
102
RTVSPost2010Prop31
280
     0
102
RTVSPost2010PropOp31
 70
     1
102
RTVSPost2010Prop32
280
     0
102
RTVSPost2010PropOp32
 70
     1
102
RTVSPost2010Prop33
280
     0
102
RTVSPost2010PropOp33
 70
     1
102
RTVSPost2010Prop34
280
     0
102
RTVSPost2010PropOp34
 70
     1
102
RTVSPost2010Prop35
280
     0
102
RTVSPost2010PropOp35
 70
     1
102
RTVSPost2010Prop36
280
     0
102
RTVSPost2010PropOp36
 70
     1
102
RTVSPost2010Prop37
 90
       50
102
RTVSPost2010PropOp37
 70
     1
102
RTVSPost2010Prop38
140
0.0
102
RTVSPost2010PropOp38
 70
     1
102
RTVSPost2010Prop39
140
1.0
102
RTVSPost2010PropOp39
 70
     1
102
RTVSPost2010Prop40
 90
        0
102
RTVSPost2010PropOp40
 70
     1
102
RTVSPost2010Prop41ColorIndex
 90
       18
102
RTVSPost2010Prop41ColorRGB
 90
        0
102
RTVSPost2010PropOp41
 70
     1
102
RTVSPost2010Prop42
 90
       50
102
RTVSPost2010PropOp42
 70
     1
102
RTVSPost2010Prop43
 90
        3
102
RTVSPost2010PropOp43
 70
     1
102
RTVSPost2010Prop44ColorIndex
 90
        5
102
RTVSPost2010Prop44ColorRGB
 90
      255
102
RTVSPost2010PropOp44
 70
     1
102
RTVSPost2010Prop45
280
     0
102
RTVSPost2010PropOp45
 70
     1
102
RTVSPost2010Prop46
 90
       50
102
RTVSPost2010PropOp46
 70
     1
102
RTVSPost2010Prop47
 90
       50
102
RTVSPost2010PropOp47
 70
     1
102
RTVSPost2010Prop48
 90
       50
102
RTVSPost2010PropOp48
 70
     1
102
RTVSPost2010Prop49
280
     0
102
RTVSPost2010PropOp49
 70
     1
102
RTVSPost2010Prop50
 90
       50
102
RTVSPost2010PropOp50
 70
     1
102
RTVSPost2010Prop51ColorIndex
 90
      256
102
RTVSPost2010Prop51ColorRGB
 90
-16777216
102
RTVSPost2010PropOp51
 70
     0
102
RTVSPost2010Prop52
140
1.0
102
RTVSPost2010PropOp52
 70
     0
102
RTVSPost2010Prop53
 90
        2
102
RTVSPost2010PropOp53
 70
     1
102
RTVSPost2010Prop54
  1
strokes_ogs.tif
102
RTVSPost2010PropOp54
 70
     1
102
RTVSPost2010Prop55
280
     0
102
RTVSPost2010PropOp55
 70
     1
102
RTVSPost2010Prop56
140
1.0
102
RTVSPost2010PropOp56
 70
     1
102
RTVSPost2010Prop57
140
1.0
102
RTVSPost2010PropOp57
 70
     1
  0
XRECORD
  5
1B50
102
{ACAD_REACTORS
330
1B4F
102
}
330
1B4F
100
AcDbXrecord
280
     1
102
RTVSPost2010Prop28
280
     0
102
RTVSPost2010PropOp28
 70
     0
102
RTVSPost2010Prop29
280
     1
102
RTVSPost2010PropOp29
 70
     0
102
RTVSPost2010Prop30
280
     1
102
RTVSPost2010PropOp30
 70
     0
102
RTVSPost2010Prop31
280
     0
102
RTVSPost2010PropOp31
 70
     0
102
RTVSPost2010Prop32
280
     0
102
RTVSPost2010PropOp32
 70
     0
102
RTVSPost2010Prop33
280
     0
102
RTVSPost2010PropOp33
 70
     0
102
RTVSPost2010Prop34
280
     0
102
RTVSPost2010PropOp34
 70
     0
102
RTVSPost2010Prop35
280
     0
102
RTVSPost2010PropOp35
 70
     0
102
RTVSPost2010Prop36
280
     0
102
RTVSPost2010PropOp36
 70
     0
102
RTVSPost2010Prop37
 90
       50
102
RTVSPost2010PropOp37
 70
     0
102
RTVSPost2010Prop38
140
0.0
102
RTVSPost2010PropOp38
 70
     0
102
RTVSPost2010Prop39
140
1.0
102
RTVSPost2010PropOp39
 70
     0
102
RTVSPost2010Prop40
 90
        0
102
RTVSPost2010PropOp40
 70
     0
102
RTVSPost2010Prop41ColorIndex
 90
       18
102
RTVSPost2010Prop41ColorRGB
 90
        0
102
RTVSPost2010PropOp41
 70
     0
102
RTVSPost2010Prop42
 90
       50
102
RTVSPost2010PropOp42
 70
     0
102
RTVSPost2010Prop43
 90
        3
102
RTVSPost2010PropOp43
 70
     0
102
RTVSPost2010Prop44ColorIndex
 90
        5
102
RTVSPost2010Prop44ColorRGB
 90
      255
102
RTVSPost2010PropOp44
 70
     0
102
RTVSPost2010Prop45
280
     0
102
RTVSPost2010PropOp45
 70
     0
102
RTVSPost2010Prop46
 90
       50
102
RTVSPost2010PropOp46
 70
     0
102
RTVSPost2010Prop47
 90
       50
102
RTVSPost2010PropOp47
 70
     0
102
RTVSPost2010Prop48
 90
       50
102
RTVSPost2010PropOp48
 70
     0
102
RTVSPost2010Prop49
280
     0
102
RTVSPost2010PropOp49
 70
     0
102
RTVSPost2010Prop50
 90
       50
102
RTVSPost2010PropOp50
 70
     0
102
RTVSPost2010Prop51ColorIndex
 90
      256
102
RTVSPost2010Prop51ColorRGB
 90
-16777216
102
RTVSPost2010PropOp51
 70
     0
102
RTVSPost2010Prop52
140
1.0
102
RTVSPost2010PropOp52
 70
     0
102
RTVSPost2010Prop53
 90
        2
102
RTVSPost2010PropOp53
 70
     0
102
RTVSPost2010Prop54
  1
strokes_ogs.tif
102
RTVSPost2010PropOp54
 70
     0
102
RTVSPost2010Prop55
280
     0
102
RTVSPost2010PropOp55
 70
     0
102
RTVSPost2010Prop56
140
1.0
102
RTVSPost2010PropOp56
 70
     0
102
RTVSPost2010Prop57
140
1.0
102
RTVSPost2010PropOp57
 70
     0
  0
XRECORD
  5
1B48
102
{ACAD_REACTORS
330
1B47
102
}
330
1B47
100
AcDbXrecord
280
     1
102
RTVSPost2010Prop28
280
     0
102
RTVSPost2010PropOp28
 70
     1
102
RTVSPost2010Prop29
280
     1
102
RTVSPost2010PropOp29
 70
     1
102
RTVSPost2010Prop30
280
     1
102
RTVSPost2010PropOp30
 70
     1
102
RTVSPost2010Prop31
280
     0
102
RTVSPost2010PropOp31
 70
     1
102
RTVSPost2010Prop32
280
     0
102
RTVSPost2010PropOp32
 70
     1
102
RTVSPost2010Prop33
280
     0
102
RTVSPost2010PropOp33
 70
     1
102
RTVSPost2010Prop34
280
     0
102
RTVSPost2010PropOp34
 70
     1
102
RTVSPost2010Prop35
280
     0
102
RTVSPost2010PropOp35
 70
     1
102
RTVSPost2010Prop36
280
     0
102
RTVSPost2010PropOp36
 70
     1
102
RTVSPost2010Prop37
 90
       50
102
RTVSPost2010PropOp37
 70
     1
102
RTVSPost2010Prop38
140
0.0
102
RTVSPost2010PropOp38
 70
     1
102
RTVSPost2010Prop39
140
1.0
102
RTVSPost2010PropOp39
 70
     1
102
RTVSPost2010Prop40
 90
        0
102
RTVSPost2010PropOp40
 70
     1
102
RTVSPost2010Prop41ColorIndex
 90
       18
102
RTVSPost2010Prop41ColorRGB
 90
        0
102
RTVSPost2010PropOp41
 70
     1
102
RTVSPost2010Prop42
 90
       50
102
RTVSPost2010PropOp42
 70
     1
102
RTVSPost2010Prop43
 90
        3
102
RTVSPost2010PropOp43
 70
     1
102
RTVSPost2010Prop44ColorIndex
 90
        5
102
RTVSPost2010Prop44ColorRGB
 90
      255
102
RTVSPost2010PropOp44
 70
     1
102
RTVSPost2010Prop45
280
     0
102
RTVSPost2010PropOp45
 70
     1
102
RTVSPost2010Prop46
 90
       50
102
RTVSPost2010PropOp46
 70
     1
102
RTVSPost2010Prop47
 90
       50
102
RTVSPost2010PropOp47
 70
     1
102
RTVSPost2010Prop48
 90
       50
102
RTVSPost2010PropOp48
 70
     1
102
RTVSPost2010Prop49
280
     0
102
RTVSPost2010PropOp49
 70
     1
102
RTVSPost2010Prop50
 90
       50
102
RTVSPost2010PropOp50
 70
     1
102
RTVSPost2010Prop51ColorIndex
 90
      256
102
RTVSPost2010Prop51ColorRGB
 90
-16777216
102
RTVSPost2010PropOp51
 70
     0
102
RTVSPost2010Prop52
140
1.0
102
RTVSPost2010PropOp52
 70
     0
102
RTVSPost2010Prop53
 90
        2
102
RTVSPost2010PropOp53
 70
     1
102
RTVSPost2010Prop54
  1
strokes_ogs.tif
102
RTVSPost2010PropOp54
 70
     1
102
RTVSPost2010Prop55
280
     0
102
RTVSPost2010PropOp55
 70
     1
102
RTVSPost2010Prop56
140
1.0
102
RTVSPost2010PropOp56
 70
     1
102
RTVSPost2010Prop57
140
1.0
102
RTVSPost2010PropOp57
 70
     1
  0
XRECORD
  5
1B2C
102
{ACAD_REACTORS
330
1B2B
102
}
330
1B2B
100
AcDbXrecord
280
     1
102
RTVSPost2010Prop28
280
     0
102
RTVSPost2010PropOp28
 70
     1
102
RTVSPost2010Prop29
280
     1
102
RTVSPost2010PropOp29
 70
     1
102
RTVSPost2010Prop30
280
     1
102
RTVSPost2010PropOp30
 70
     1
102
RTVSPost2010Prop31
280
     0
102
RTVSPost2010PropOp31
 70
     1
102
RTVSPost2010Prop32
280
     0
102
RTVSPost2010PropOp32
 70
     1
102
RTVSPost2010Prop33
280
     0
102
RTVSPost2010PropOp33
 70
     1
102
RTVSPost2010Prop34
280
     0
102
RTVSPost2010PropOp34
 70
     1
102
RTVSPost2010Prop35
280
     0
102
RTVSPost2010PropOp35
 70
     1
102
RTVSPost2010Prop36
280
     0
102
RTVSPost2010PropOp36
 70
     1
102
RTVSPost2010Prop37
 90
       50
102
RTVSPost2010PropOp37
 70
     1
102
RTVSPost2010Prop38
140
0.0
102
RTVSPost2010PropOp38
 70
     1
102
RTVSPost2010Prop39
140
1.0
102
RTVSPost2010PropOp39
 70
     1
102
RTVSPost2010Prop40
 90
        0
102
RTVSPost2010PropOp40
 70
     1
102
RTVSPost2010Prop41ColorIndex
 90
       18
102
RTVSPost2010Prop41ColorRGB
 90
        0
102
RTVSPost2010PropOp41
 70
     1
102
RTVSPost2010Prop42
 90
       50
102
RTVSPost2010PropOp42
 70
     1
102
RTVSPost2010Prop43
 90
        3
102
RTVSPost2010PropOp43
 70
     1
102
RTVSPost2010Prop44ColorIndex
 90
        5
102
RTVSPost2010Prop44ColorRGB
 90
      255
102
RTVSPost2010PropOp44
 70
     1
102
RTVSPost2010Prop45
280
     0
102
RTVSPost2010PropOp45
 70
     1
102
RTVSPost2010Prop46
 90
       50
102
RTVSPost2010PropOp46
 70
     1
102
RTVSPost2010Prop47
 90
       50
102
RTVSPost2010PropOp47
 70
     1
102
RTVSPost2010Prop48
 90
       50
102
RTVSPost2010PropOp48
 70
     1
102
RTVSPost2010Prop49
280
     0
102
RTVSPost2010PropOp49
 70
     1
102
RTVSPost2010Prop50
 90
       50
102
RTVSPost2010PropOp50
 70
     1
102
RTVSPost2010Prop51ColorIndex
 90
      256
102
RTVSPost2010Prop51ColorRGB
 90
-16777216
102
RTVSPost2010PropOp51
 70
     0
102
RTVSPost2010Prop52
140
1.0
102
RTVSPost2010PropOp52
 70
     0
102
RTVSPost2010Prop53
 90
        2
102
RTVSPost2010PropOp53
 70
     1
102
RTVSPost2010Prop54
  1
strokes_ogs.tif
102
RTVSPost2010PropOp54
 70
     1
102
RTVSPost2010Prop55
280
     0
102
RTVSPost2010PropOp55
 70
     1
102
RTVSPost2010Prop56
140
1.0
102
RTVSPost2010PropOp56
 70
     1
102
RTVSPost2010Prop57
140
1.0
102
RTVSPost2010PropOp57
 70
     1
  0
XRECORD
  5
1B2E
102
{ACAD_REACTORS
330
1B2D
102
}
330
1B2D
100
AcDbXrecord
280
     1
102
RTVSPost2010Prop28
280
     0
102
RTVSPost2010PropOp28
 70
     1
102
RTVSPost2010Prop29
280
     1
102
RTVSPost2010PropOp29
 70
     1
102
RTVSPost2010Prop30
280
     1
102
RTVSPost2010PropOp30
 70
     1
102
RTVSPost2010Prop31
280
     0
102
RTVSPost2010PropOp31
 70
     1
102
RTVSPost2010Prop32
280
     0
102
RTVSPost2010PropOp32
 70
     1
102
RTVSPost2010Prop33
280
     0
102
RTVSPost2010PropOp33
 70
     1
102
RTVSPost2010Prop34
280
     0
102
RTVSPost2010PropOp34
 70
     1
102
RTVSPost2010Prop35
280
     0
102
RTVSPost2010PropOp35
 70
     1
102
RTVSPost2010Prop36
280
     0
102
RTVSPost2010PropOp36
 70
     1
102
RTVSPost2010Prop37
 90
       50
102
RTVSPost2010PropOp37
 70
     1
102
RTVSPost2010Prop38
140
0.0
102
RTVSPost2010PropOp38
 70
     1
102
RTVSPost2010Prop39
140
1.0
102
RTVSPost2010PropOp39
 70
     1
102
RTVSPost2010Prop40
 90
        0
102
RTVSPost2010PropOp40
 70
     1
102
RTVSPost2010Prop41ColorIndex
 90
       18
102
RTVSPost2010Prop41ColorRGB
 90
        0
102
RTVSPost2010PropOp41
 70
     1
102
RTVSPost2010Prop42
 90
       50
102
RTVSPost2010PropOp42
 70
     1
102
RTVSPost2010Prop43
 90
        3
102
RTVSPost2010PropOp43
 70
     1
102
RTVSPost2010Prop44ColorIndex
 90
        5
102
RTVSPost2010Prop44ColorRGB
 90
      255
102
RTVSPost2010PropOp44
 70
     1
102
RTVSPost2010Prop45
280
     0
102
RTVSPost2010PropOp45
 70
     1
102
RTVSPost2010Prop46
 90
       50
102
RTVSPost2010PropOp46
 70
     1
102
RTVSPost2010Prop47
 90
       50
102
RTVSPost2010PropOp47
 70
     1
102
RTVSPost2010Prop48
 90
       50
102
RTVSPost2010PropOp48
 70
     1
102
RTVSPost2010Prop49
280
     0
102
RTVSPost2010PropOp49
 70
     1
102
RTVSPost2010Prop50
 90
       50
102
RTVSPost2010PropOp50
 70
     1
102
RTVSPost2010Prop51ColorIndex
 90
      256
102
RTVSPost2010Prop51ColorRGB
 90
-16777216
102
RTVSPost2010PropOp51
 70
     0
102
RTVSPost2010Prop52
140
1.0
102
RTVSPost2010PropOp52
 70
     0
102
RTVSPost2010Prop53
 90
        2
102
RTVSPost2010PropOp53
 70
     1
102
RTVSPost2010Prop54
  1
strokes_ogs.tif
102
RTVSPost2010PropOp54
 70
     1
102
RTVSPost2010Prop55
280
     0
102
RTVSPost2010PropOp55
 70
     1
102
RTVSPost2010Prop56
140
1.0
102
RTVSPost2010PropOp56
 70
     1
102
RTVSPost2010Prop57
140
1.0
102
RTVSPost2010PropOp57
 70
     1
  0
XRECORD
  5
1B30
102
{ACAD_REACTORS
330
1B2F
102
}
330
1B2F
100
AcDbXrecord
280
     1
102
RTVSPost2010Prop28
280
     0
102
RTVSPost2010PropOp28
 70
     1
102
RTVSPost2010Prop29
280
     1
102
RTVSPost2010PropOp29
 70
     1
102
RTVSPost2010Prop30
280
     1
102
RTVSPost2010PropOp30
 70
     1
102
RTVSPost2010Prop31
280
     0
102
RTVSPost2010PropOp31
 70
     1
102
RTVSPost2010Prop32
280
     0
102
RTVSPost2010PropOp32
 70
     1
102
RTVSPost2010Prop33
280
     0
102
RTVSPost2010PropOp33
 70
     1
102
RTVSPost2010Prop34
280
     0
102
RTVSPost2010PropOp34
 70
     1
102
RTVSPost2010Prop35
280
     0
102
RTVSPost2010PropOp35
 70
     1
102
RTVSPost2010Prop36
280
     0
102
RTVSPost2010PropOp36
 70
     1
102
RTVSPost2010Prop37
 90
       50
102
RTVSPost2010PropOp37
 70
     1
102
RTVSPost2010Prop38
140
0.0
102
RTVSPost2010PropOp38
 70
     1
102
RTVSPost2010Prop39
140
1.0
102
RTVSPost2010PropOp39
 70
     1
102
RTVSPost2010Prop40
 90
        0
102
RTVSPost2010PropOp40
 70
     1
102
RTVSPost2010Prop41ColorIndex
 90
       18
102
RTVSPost2010Prop41ColorRGB
 90
        0
102
RTVSPost2010PropOp41
 70
     1
102
RTVSPost2010Prop42
 90
       50
102
RTVSPost2010PropOp42
 70
     1
102
RTVSPost2010Prop43
 90
        3
102
RTVSPost2010PropOp43
 70
     1
102
RTVSPost2010Prop44ColorIndex
 90
        5
102
RTVSPost2010Prop44ColorRGB
 90
      255
102
RTVSPost2010PropOp44
 70
     1
102
RTVSPost2010Prop45
280
     0
102
RTVSPost2010PropOp45
 70
     1
102
RTVSPost2010Prop46
 90
       50
102
RTVSPost2010PropOp46
 70
     1
102
RTVSPost2010Prop47
 90
       50
102
RTVSPost2010PropOp47
 70
     1
102
RTVSPost2010Prop48
 90
       50
102
RTVSPost2010PropOp48
 70
     1
102
RTVSPost2010Prop49
280
     0
102
RTVSPost2010PropOp49
 70
     1
102
RTVSPost2010Prop50
 90
       50
102
RTVSPost2010PropOp50
 70
     1
102
RTVSPost2010Prop51ColorIndex
 90
      256
102
RTVSPost2010Prop51ColorRGB
 90
-16777216
102
RTVSPost2010PropOp51
 70
     0
102
RTVSPost2010Prop52
140
1.0
102
RTVSPost2010PropOp52
 70
     0
102
RTVSPost2010Prop53
 90
        2
102
RTVSPost2010PropOp53
 70
     1
102
RTVSPost2010Prop54
  1
strokes_ogs.tif
102
RTVSPost2010PropOp54
 70
     1
102
RTVSPost2010Prop55
280
     0
102
RTVSPost2010PropOp55
 70
     1
102
RTVSPost2010Prop56
140
1.0
102
RTVSPost2010PropOp56
 70
     1
102
RTVSPost2010Prop57
140
1.0
102
RTVSPost2010PropOp57
 70
     1
  0
XRECORD
  5
1B32
102
{ACAD_REACTORS
330
1B31
102
}
330
1B31
100
AcDbXrecord
280
     1
102
RTVSPost2010Prop28
280
     0
102
RTVSPost2010PropOp28
 70
     1
102
RTVSPost2010Prop29
280
     1
102
RTVSPost2010PropOp29
 70
     1
102
RTVSPost2010Prop30
280
     1
102
RTVSPost2010PropOp30
 70
     1
102
RTVSPost2010Prop31
280
     0
102
RTVSPost2010PropOp31
 70
     1
102
RTVSPost2010Prop32
280
     0
102
RTVSPost2010PropOp32
 70
     1
102
RTVSPost2010Prop33
280
     0
102
RTVSPost2010PropOp33
 70
     1
102
RTVSPost2010Prop34
280
     0
102
RTVSPost2010PropOp34
 70
     1
102
RTVSPost2010Prop35
280
     0
102
RTVSPost2010PropOp35
 70
     1
102
RTVSPost2010Prop36
280
     0
102
RTVSPost2010PropOp36
 70
     1
102
RTVSPost2010Prop37
 90
       50
102
RTVSPost2010PropOp37
 70
     1
102
RTVSPost2010Prop38
140
0.0
102
RTVSPost2010PropOp38
 70
     1
102
RTVSPost2010Prop39
140
1.0
102
RTVSPost2010PropOp39
 70
     1
102
RTVSPost2010Prop40
 90
        0
102
RTVSPost2010PropOp40
 70
     1
102
RTVSPost2010Prop41ColorIndex
 90
       18
102
RTVSPost2010Prop41ColorRGB
 90
        0
102
RTVSPost2010PropOp41
 70
     1
102
RTVSPost2010Prop42
 90
       50
102
RTVSPost2010PropOp42
 70
     1
102
RTVSPost2010Prop43
 90
        3
102
RTVSPost2010PropOp43
 70
     1
102
RTVSPost2010Prop44ColorIndex
 90
        5
102
RTVSPost2010Prop44ColorRGB
 90
      255
102
RTVSPost2010PropOp44
 70
     1
102
RTVSPost2010Prop45
280
     0
102
RTVSPost2010PropOp45
 70
     1
102
RTVSPost2010Prop46
 90
       50
102
RTVSPost2010PropOp46
 70
     1
102
RTVSPost2010Prop47
 90
       50
102
RTVSPost2010PropOp47
 70
     1
102
RTVSPost2010Prop48
 90
       50
102
RTVSPost2010PropOp48
 70
     1
102
RTVSPost2010Prop49
280
     0
102
RTVSPost2010PropOp49
 70
     1
102
RTVSPost2010Prop50
 90
       50
102
RTVSPost2010PropOp50
 70
     1
102
RTVSPost2010Prop51ColorIndex
 90
      256
102
RTVSPost2010Prop51ColorRGB
 90
-16777216
102
RTVSPost2010PropOp51
 70
     0
102
RTVSPost2010Prop52
140
1.0
102
RTVSPost2010PropOp52
 70
     0
102
RTVSPost2010Prop53
 90
        2
102
RTVSPost2010PropOp53
 70
     1
102
RTVSPost2010Prop54
  1
strokes_ogs.tif
102
RTVSPost2010PropOp54
 70
     1
102
RTVSPost2010Prop55
280
     0
102
RTVSPost2010PropOp55
 70
     1
102
RTVSPost2010Prop56
140
1.0
102
RTVSPost2010PropOp56
 70
     1
102
RTVSPost2010Prop57
140
1.0
102
RTVSPost2010PropOp57
 70
     1
  0
XRECORD
  5
1B38
102
{ACAD_REACTORS
330
1B37
102
}
330
1B37
100
AcDbXrecord
280
     1
102
RTVSPost2010Prop28
280
     0
102
RTVSPost2010PropOp28
 70
     1
102
RTVSPost2010Prop29
280
     1
102
RTVSPost2010PropOp29
 70
     1
102
RTVSPost2010Prop30
280
     1
102
RTVSPost2010PropOp30
 70
     1
102
RTVSPost2010Prop31
280
     0
102
RTVSPost2010PropOp31
 70
     1
102
RTVSPost2010Prop32
280
     0
102
RTVSPost2010PropOp32
 70
     1
102
RTVSPost2010Prop33
280
     0
102
RTVSPost2010PropOp33
 70
     1
102
RTVSPost2010Prop34
280
     0
102
RTVSPost2010PropOp34
 70
     1
102
RTVSPost2010Prop35
280
     0
102
RTVSPost2010PropOp35
 70
     1
102
RTVSPost2010Prop36
280
     0
102
RTVSPost2010PropOp36
 70
     1
102
RTVSPost2010Prop37
 90
       50
102
RTVSPost2010PropOp37
 70
     1
102
RTVSPost2010Prop38
140
0.0
102
RTVSPost2010PropOp38
 70
     1
102
RTVSPost2010Prop39
140
1.0
102
RTVSPost2010PropOp39
 70
     1
102
RTVSPost2010Prop40
 90
        0
102
RTVSPost2010PropOp40
 70
     1
102
RTVSPost2010Prop41ColorIndex
 90
       18
102
RTVSPost2010Prop41ColorRGB
 90
        0
102
RTVSPost2010PropOp41
 70
     1
102
RTVSPost2010Prop42
 90
       50
102
RTVSPost2010PropOp42
 70
     1
102
RTVSPost2010Prop43
 90
        3
102
RTVSPost2010PropOp43
 70
     1
102
RTVSPost2010Prop44ColorIndex
 90
        5
102
RTVSPost2010Prop44ColorRGB
 90
      255
102
RTVSPost2010PropOp44
 70
     1
102
RTVSPost2010Prop45
280
     0
102
RTVSPost2010PropOp45
 70
     1
102
RTVSPost2010Prop46
 90
       50
102
RTVSPost2010PropOp46
 70
     1
102
RTVSPost2010Prop47
 90
       50
102
RTVSPost2010PropOp47
 70
     1
102
RTVSPost2010Prop48
 90
       50
102
RTVSPost2010PropOp48
 70
     1
102
RTVSPost2010Prop49
280
     0
102
RTVSPost2010PropOp49
 70
     1
102
RTVSPost2010Prop50
 90
       50
102
RTVSPost2010PropOp50
 70
     1
102
RTVSPost2010Prop51ColorIndex
 90
      256
102
RTVSPost2010Prop51ColorRGB
 90
-16777216
102
RTVSPost2010PropOp51
 70
     0
102
RTVSPost2010Prop52
140
1.0
102
RTVSPost2010PropOp52
 70
     0
102
RTVSPost2010Prop53
 90
        2
102
RTVSPost2010PropOp53
 70
     1
102
RTVSPost2010Prop54
  1
strokes_ogs.tif
102
RTVSPost2010PropOp54
 70
     1
102
RTVSPost2010Prop55
280
     0
102
RTVSPost2010PropOp55
 70
     1
102
RTVSPost2010Prop56
140
1.0
102
RTVSPost2010PropOp56
 70
     1
102
RTVSPost2010Prop57
140
1.0
102
RTVSPost2010PropOp57
 70
     1
  0
XRECORD
  5
1B4C
102
{ACAD_REACTORS
330
1B4B
102
}
330
1B4B
100
AcDbXrecord
280
     1
102
RTVSPost2010Prop28
280
     0
102
RTVSPost2010PropOp28
 70
     0
102
RTVSPost2010Prop29
280
     1
102
RTVSPost2010PropOp29
 70
     0
102
RTVSPost2010Prop30
280
     1
102
RTVSPost2010PropOp30
 70
     0
102
RTVSPost2010Prop31
280
     0
102
RTVSPost2010PropOp31
 70
     0
102
RTVSPost2010Prop32
280
     0
102
RTVSPost2010PropOp32
 70
     0
102
RTVSPost2010Prop33
280
     0
102
RTVSPost2010PropOp33
 70
     0
102
RTVSPost2010Prop34
280
     0
102
RTVSPost2010PropOp34
 70
     0
102
RTVSPost2010Prop35
280
     0
102
RTVSPost2010PropOp35
 70
     0
102
RTVSPost2010Prop36
280
     0
102
RTVSPost2010PropOp36
 70
     0
102
RTVSPost2010Prop37
 90
       50
102
RTVSPost2010PropOp37
 70
     0
102
RTVSPost2010Prop38
140
0.0
102
RTVSPost2010PropOp38
 70
     0
102
RTVSPost2010Prop39
140
1.0
102
RTVSPost2010PropOp39
 70
     0
102
RTVSPost2010Prop40
 90
        0
102
RTVSPost2010PropOp40
 70
     0
102
RTVSPost2010Prop41ColorIndex
 90
       18
102
RTVSPost2010Prop41ColorRGB
 90
        0
102
RTVSPost2010PropOp41
 70
     0
102
RTVSPost2010Prop42
 90
       50
102
RTVSPost2010PropOp42
 70
     0
102
RTVSPost2010Prop43
 90
        3
102
RTVSPost2010PropOp43
 70
     0
102
RTVSPost2010Prop44ColorIndex
 90
        5
102
RTVSPost2010Prop44ColorRGB
 90
      255
102
RTVSPost2010PropOp44
 70
     0
102
RTVSPost2010Prop45
280
     0
102
RTVSPost2010PropOp45
 70
     0
102
RTVSPost2010Prop46
 90
       50
102
RTVSPost2010PropOp46
 70
     0
102
RTVSPost2010Prop47
 90
       50
102
RTVSPost2010PropOp47
 70
     0
102
RTVSPost2010Prop48
 90
       50
102
RTVSPost2010PropOp48
 70
     0
102
RTVSPost2010Prop49
280
     0
102
RTVSPost2010PropOp49
 70
     0
102
RTVSPost2010Prop50
 90
       50
102
RTVSPost2010PropOp50
 70
     0
102
RTVSPost2010Prop51ColorIndex
 90
      256
102
RTVSPost2010Prop51ColorRGB
 90
-16777216
102
RTVSPost2010PropOp51
 70
     0
102
RTVSPost2010Prop52
140
1.0
102
RTVSPost2010PropOp52
 70
     0
102
RTVSPost2010Prop53
 90
        2
102
RTVSPost2010PropOp53
 70
     0
102
RTVSPost2010Prop54
  1
strokes_ogs.tif
102
RTVSPost2010PropOp54
 70
     0
102
RTVSPost2010Prop55
280
     0
102
RTVSPost2010PropOp55
 70
     0
102
RTVSPost2010Prop56
140
1.0
102
RTVSPost2010PropOp56
 70
     0
102
RTVSPost2010Prop57
140
1.0
102
RTVSPost2010PropOp57
 70
     0
  0
XRECORD
  5
1B46
102
{ACAD_REACTORS
330
1B45
102
}
330
1B45
100
AcDbXrecord
280
     1
102
RTVSPost2010Prop28
280
     0
102
RTVSPost2010PropOp28
 70
     1
102
RTVSPost2010Prop29
280
     1
102
RTVSPost2010PropOp29
 70
     1
102
RTVSPost2010Prop30
280
     1
102
RTVSPost2010PropOp30
 70
     1
102
RTVSPost2010Prop31
280
     0
102
RTVSPost2010PropOp31
 70
     1
102
RTVSPost2010Prop32
280
     0
102
RTVSPost2010PropOp32
 70
     1
102
RTVSPost2010Prop33
280
     0
102
RTVSPost2010PropOp33
 70
     1
102
RTVSPost2010Prop34
280
     0
102
RTVSPost2010PropOp34
 70
     1
102
RTVSPost2010Prop35
280
     0
102
RTVSPost2010PropOp35
 70
     1
102
RTVSPost2010Prop36
280
     0
102
RTVSPost2010PropOp36
 70
     1
102
RTVSPost2010Prop37
 90
       50
102
RTVSPost2010PropOp37
 70
     1
102
RTVSPost2010Prop38
140
0.0
102
RTVSPost2010PropOp38
 70
     1
102
RTVSPost2010Prop39
140
1.0
102
RTVSPost2010PropOp39
 70
     1
102
RTVSPost2010Prop40
 90
        0
102
RTVSPost2010PropOp40
 70
     1
102
RTVSPost2010Prop41ColorIndex
 90
       18
102
RTVSPost2010Prop41ColorRGB
 90
        0
102
RTVSPost2010PropOp41
 70
     1
102
RTVSPost2010Prop42
 90
       50
102
RTVSPost2010PropOp42
 70
     1
102
RTVSPost2010Prop43
 90
        3
102
RTVSPost2010PropOp43
 70
     1
102
RTVSPost2010Prop44ColorIndex
 90
        5
102
RTVSPost2010Prop44ColorRGB
 90
      255
102
RTVSPost2010PropOp44
 70
     1
102
RTVSPost2010Prop45
280
     0
102
RTVSPost2010PropOp45
 70
     1
102
RTVSPost2010Prop46
 90
       50
102
RTVSPost2010PropOp46
 70
     1
102
RTVSPost2010Prop47
 90
       50
102
RTVSPost2010PropOp47
 70
     1
102
RTVSPost2010Prop48
 90
       50
102
RTVSPost2010PropOp48
 70
     1
102
RTVSPost2010Prop49
280
     0
102
RTVSPost2010PropOp49
 70
     1
102
RTVSPost2010Prop50
 90
       50
102
RTVSPost2010PropOp50
 70
     1
102
RTVSPost2010Prop51ColorIndex
 90
      256
102
RTVSPost2010Prop51ColorRGB
 90
-16777216
102
RTVSPost2010PropOp51
 70
     0
102
RTVSPost2010Prop52
140
1.0
102
RTVSPost2010PropOp52
 70
     0
102
RTVSPost2010Prop53
 90
        2
102
RTVSPost2010PropOp53
 70
     1
102
RTVSPost2010Prop54
  1
strokes_ogs.tif
102
RTVSPost2010PropOp54
 70
     1
102
RTVSPost2010Prop55
280
     0
102
RTVSPost2010PropOp55
 70
     1
102
RTVSPost2010Prop56
140
1.0
102
RTVSPost2010PropOp56
 70
     1
102
RTVSPost2010Prop57
140
1.0
102
RTVSPost2010PropOp57
 70
     1
  0
XRECORD
  5
1B5C
102
{ACAD_REACTORS
330
1B5B
102
}
330
1B5B
100
AcDbXrecord
280
     1
102
RTVSPost2010Prop28
280
     0
102
RTVSPost2010PropOp28
 70
     1
102
RTVSPost2010Prop29
280
     1
102
RTVSPost2010PropOp29
 70
     1
102
RTVSPost2010Prop30
280
     1
102
RTVSPost2010PropOp30
 70
     1
102
RTVSPost2010Prop31
280
     0
102
RTVSPost2010PropOp31
 70
     1
102
RTVSPost2010Prop32
280
     0
102
RTVSPost2010PropOp32
 70
     1
102
RTVSPost2010Prop33
280
     0
102
RTVSPost2010PropOp33
 70
     1
102
RTVSPost2010Prop34
280
     0
102
RTVSPost2010PropOp34
 70
     1
102
RTVSPost2010Prop35
280
     0
102
RTVSPost2010PropOp35
 70
     1
102
RTVSPost2010Prop36
280
     0
102
RTVSPost2010PropOp36
 70
     1
102
RTVSPost2010Prop37
 90
       50
102
RTVSPost2010PropOp37
 70
     1
102
RTVSPost2010Prop38
140
0.0
102
RTVSPost2010PropOp38
 70
     1
102
RTVSPost2010Prop39
140
1.0
102
RTVSPost2010PropOp39
 70
     1
102
RTVSPost2010Prop40
 90
        0
102
RTVSPost2010PropOp40
 70
     1
102
RTVSPost2010Prop41ColorIndex
 90
       18
102
RTVSPost2010Prop41ColorRGB
 90
        0
102
RTVSPost2010PropOp41
 70
     1
102
RTVSPost2010Prop42
 90
       50
102
RTVSPost2010PropOp42
 70
     1
102
RTVSPost2010Prop43
 90
        3
102
RTVSPost2010PropOp43
 70
     1
102
RTVSPost2010Prop44ColorIndex
 90
        5
102
RTVSPost2010Prop44ColorRGB
 90
      255
102
RTVSPost2010PropOp44
 70
     1
102
RTVSPost2010Prop45
280
     0
102
RTVSPost2010PropOp45
 70
     1
102
RTVSPost2010Prop46
 90
       50
102
RTVSPost2010PropOp46
 70
     1
102
RTVSPost2010Prop47
 90
       50
102
RTVSPost2010PropOp47
 70
     1
102
RTVSPost2010Prop48
 90
       50
102
RTVSPost2010PropOp48
 70
     1
102
RTVSPost2010Prop49
280
     0
102
RTVSPost2010PropOp49
 70
     1
102
RTVSPost2010Prop50
 90
       50
102
RTVSPost2010PropOp50
 70
     1
102
RTVSPost2010Prop51ColorIndex
 90
      256
102
RTVSPost2010Prop51ColorRGB
 90
-16777216
102
RTVSPost2010PropOp51
 70
     0
102
RTVSPost2010Prop52
140
1.0
102
RTVSPost2010PropOp52
 70
     0
102
RTVSPost2010Prop53
 90
        2
102
RTVSPost2010PropOp53
 70
     1
102
RTVSPost2010Prop54
  1
strokes_ogs.tif
102
RTVSPost2010PropOp54
 70
     1
102
RTVSPost2010Prop55
280
     0
102
RTVSPost2010PropOp55
 70
     1
102
RTVSPost2010Prop56
140
1.0
102
RTVSPost2010PropOp56
 70
     1
102
RTVSPost2010Prop57
140
1.0
102
RTVSPost2010PropOp57
 70
     1
  0
XRECORD
  5
1B4E
102
{ACAD_REACTORS
330
1B4D
102
}
330
1B4D
100
AcDbXrecord
280
     1
102
RTVSPost2010Prop28
280
     0
102
RTVSPost2010PropOp28
 70
     0
102
RTVSPost2010Prop29
280
     1
102
RTVSPost2010PropOp29
 70
     0
102
RTVSPost2010Prop30
280
     1
102
RTVSPost2010PropOp30
 70
     0
102
RTVSPost2010Prop31
280
     0
102
RTVSPost2010PropOp31
 70
     0
102
RTVSPost2010Prop32
280
     0
102
RTVSPost2010PropOp32
 70
     0
102
RTVSPost2010Prop33
280
     0
102
RTVSPost2010PropOp33
 70
     0
102
RTVSPost2010Prop34
280
     0
102
RTVSPost2010PropOp34
 70
     0
102
RTVSPost2010Prop35
280
     0
102
RTVSPost2010PropOp35
 70
     0
102
RTVSPost2010Prop36
280
     0
102
RTVSPost2010PropOp36
 70
     0
102
RTVSPost2010Prop37
 90
       50
102
RTVSPost2010PropOp37
 70
     0
102
RTVSPost2010Prop38
140
0.0
102
RTVSPost2010PropOp38
 70
     0
102
RTVSPost2010Prop39
140
1.0
102
RTVSPost2010PropOp39
 70
     0
102
RTVSPost2010Prop40
 90
        0
102
RTVSPost2010PropOp40
 70
     0
102
RTVSPost2010Prop41ColorIndex
 90
       18
102
RTVSPost2010Prop41ColorRGB
 90
        0
102
RTVSPost2010PropOp41
 70
     0
102
RTVSPost2010Prop42
 90
       50
102
RTVSPost2010PropOp42
 70
     0
102
RTVSPost2010Prop43
 90
        3
102
RTVSPost2010PropOp43
 70
     0
102
RTVSPost2010Prop44ColorIndex
 90
        5
102
RTVSPost2010Prop44ColorRGB
 90
      255
102
RTVSPost2010PropOp44
 70
     0
102
RTVSPost2010Prop45
280
     0
102
RTVSPost2010PropOp45
 70
     0
102
RTVSPost2010Prop46
 90
       50
102
RTVSPost2010PropOp46
 70
     0
102
RTVSPost2010Prop47
 90
       50
102
RTVSPost2010PropOp47
 70
     0
102
RTVSPost2010Prop48
 90
       50
102
RTVSPost2010PropOp48
 70
     0
102
RTVSPost2010Prop49
280
     0
102
RTVSPost2010PropOp49
 70
     0
102
RTVSPost2010Prop50
 90
       50
102
RTVSPost2010PropOp50
 70
     0
102
RTVSPost2010Prop51ColorIndex
 90
      256
102
RTVSPost2010Prop51ColorRGB
 90
-16777216
102
RTVSPost2010PropOp51
 70
     0
102
RTVSPost2010Prop52
140
1.0
102
RTVSPost2010PropOp52
 70
     0
102
RTVSPost2010Prop53
 90
        2
102
RTVSPost2010PropOp53
 70
     0
102
RTVSPost2010Prop54
  1
strokes_ogs.tif
102
RTVSPost2010PropOp54
 70
     0
102
RTVSPost2010Prop55
280
     0
102
RTVSPost2010PropOp55
 70
     0
102
RTVSPost2010Prop56
140
1.0
102
RTVSPost2010PropOp56
 70
     0
102
RTVSPost2010Prop57
140
1.0
102
RTVSPost2010PropOp57
 70
     0
  0
XRECORD
  5
1B3C
102
{ACAD_REACTORS
330
1B3B
102
}
330
1B3B
100
AcDbXrecord
280
     1
102
RTVSPost2010Prop28
280
     0
102
RTVSPost2010PropOp28
 70
     1
102
RTVSPost2010Prop29
280
     1
102
RTVSPost2010PropOp29
 70
     1
102
RTVSPost2010Prop30
280
     1
102
RTVSPost2010PropOp30
 70
     1
102
RTVSPost2010Prop31
280
     0
102
RTVSPost2010PropOp31
 70
     1
102
RTVSPost2010Prop32
280
     0
102
RTVSPost2010PropOp32
 70
     1
102
RTVSPost2010Prop33
280
     0
102
RTVSPost2010PropOp33
 70
     1
102
RTVSPost2010Prop34
280
     0
102
RTVSPost2010PropOp34
 70
     1
102
RTVSPost2010Prop35
280
     0
102
RTVSPost2010PropOp35
 70
     1
102
RTVSPost2010Prop36
280
     0
102
RTVSPost2010PropOp36
 70
     1
102
RTVSPost2010Prop37
 90
       50
102
RTVSPost2010PropOp37
 70
     1
102
RTVSPost2010Prop38
140
0.0
102
RTVSPost2010PropOp38
 70
     1
102
RTVSPost2010Prop39
140
1.0
102
RTVSPost2010PropOp39
 70
     1
102
RTVSPost2010Prop40
 90
        0
102
RTVSPost2010PropOp40
 70
     1
102
RTVSPost2010Prop41ColorIndex
 90
       18
102
RTVSPost2010Prop41ColorRGB
 90
        0
102
RTVSPost2010PropOp41
 70
     1
102
RTVSPost2010Prop42
 90
       50
102
RTVSPost2010PropOp42
 70
     1
102
RTVSPost2010Prop43
 90
        3
102
RTVSPost2010PropOp43
 70
     1
102
RTVSPost2010Prop44ColorIndex
 90
        5
102
RTVSPost2010Prop44ColorRGB
 90
      255
102
RTVSPost2010PropOp44
 70
     1
102
RTVSPost2010Prop45
280
     0
102
RTVSPost2010PropOp45
 70
     1
102
RTVSPost2010Prop46
 90
       50
102
RTVSPost2010PropOp46
 70
     1
102
RTVSPost2010Prop47
 90
       50
102
RTVSPost2010PropOp47
 70
     1
102
RTVSPost2010Prop48
 90
       50
102
RTVSPost2010PropOp48
 70
     1
102
RTVSPost2010Prop49
280
     0
102
RTVSPost2010PropOp49
 70
     1
102
RTVSPost2010Prop50
 90
       50
102
RTVSPost2010PropOp50
 70
     1
102
RTVSPost2010Prop51ColorIndex
 90
      256
102
RTVSPost2010Prop51ColorRGB
 90
-16777216
102
RTVSPost2010PropOp51
 70
     0
102
RTVSPost2010Prop52
140
1.0
102
RTVSPost2010PropOp52
 70
     0
102
RTVSPost2010Prop53
 90
        2
102
RTVSPost2010PropOp53
 70
     1
102
RTVSPost2010Prop54
  1
strokes_ogs.tif
102
RTVSPost2010PropOp54
 70
     1
102
RTVSPost2010Prop55
280
     0
102
RTVSPost2010PropOp55
 70
     1
102
RTVSPost2010Prop56
140
1.0
102
RTVSPost2010PropOp56
 70
     1
102
RTVSPost2010Prop57
140
1.0
102
RTVSPost2010PropOp57
 70
     1
  0
XRECORD
  5
1B5A
102
{ACAD_REACTORS
330
1B59
102
}
330
1B59
100
AcDbXrecord
280
     1
102
RTVSPost2010Prop28
280
     0
102
RTVSPost2010PropOp28
 70
     1
102
RTVSPost2010Prop29
280
     1
102
RTVSPost2010PropOp29
 70
     1
102
RTVSPost2010Prop30
280
     1
102
RTVSPost2010PropOp30
 70
     1
102
RTVSPost2010Prop31
280
     0
102
RTVSPost2010PropOp31
 70
     1
102
RTVSPost2010Prop32
280
     0
102
RTVSPost2010PropOp32
 70
     1
102
RTVSPost2010Prop33
280
     0
102
RTVSPost2010PropOp33
 70
     1
102
RTVSPost2010Prop34
280
     0
102
RTVSPost2010PropOp34
 70
     1
102
RTVSPost2010Prop35
280
     0
102
RTVSPost2010PropOp35
 70
     1
102
RTVSPost2010Prop36
280
     0
102
RTVSPost2010PropOp36
 70
     1
102
RTVSPost2010Prop37
 90
       50
102
RTVSPost2010PropOp37
 70
     1
102
RTVSPost2010Prop38
140
0.0
102
RTVSPost2010PropOp38
 70
     1
102
RTVSPost2010Prop39
140
1.0
102
RTVSPost2010PropOp39
 70
     1
102
RTVSPost2010Prop40
 90
        0
102
RTVSPost2010PropOp40
 70
     1
102
RTVSPost2010Prop41ColorIndex
 90
       18
102
RTVSPost2010Prop41ColorRGB
 90
        0
102
RTVSPost2010PropOp41
 70
     1
102
RTVSPost2010Prop42
 90
       50
102
RTVSPost2010PropOp42
 70
     1
102
RTVSPost2010Prop43
 90
        3
102
RTVSPost2010PropOp43
 70
     1
102
RTVSPost2010Prop44ColorIndex
 90
        5
102
RTVSPost2010Prop44ColorRGB
 90
      255
102
RTVSPost2010PropOp44
 70
     1
102
RTVSPost2010Prop45
280
     0
102
RTVSPost2010PropOp45
 70
     1
102
RTVSPost2010Prop46
 90
       50
102
RTVSPost2010PropOp46
 70
     1
102
RTVSPost2010Prop47
 90
       50
102
RTVSPost2010PropOp47
 70
     1
102
RTVSPost2010Prop48
 90
       50
102
RTVSPost2010PropOp48
 70
     1
102
RTVSPost2010Prop49
280
     0
102
RTVSPost2010PropOp49
 70
     1
102
RTVSPost2010Prop50
 90
       50
102
RTVSPost2010PropOp50
 70
     1
102
RTVSPost2010Prop51ColorIndex
 90
      256
102
RTVSPost2010Prop51ColorRGB
 90
-16777216
102
RTVSPost2010PropOp51
 70
     0
102
RTVSPost2010Prop52
140
1.0
102
RTVSPost2010PropOp52
 70
     0
102
RTVSPost2010Prop53
 90
        2
102
RTVSPost2010PropOp53
 70
     1
102
RTVSPost2010Prop54
  1
strokes_ogs.tif
102
RTVSPost2010PropOp54
 70
     1
102
RTVSPost2010Prop55
280
     0
102
RTVSPost2010PropOp55
 70
     1
102
RTVSPost2010Prop56
140
1.0
102
RTVSPost2010PropOp56
 70
     1
102
RTVSPost2010Prop57
140
1.0
102
RTVSPost2010PropOp57
 70
     1
  0
XRECORD
  5
1B58
102
{ACAD_REACTORS
330
1B57
102
}
330
1B57
100
AcDbXrecord
280
     1
102
RTVSPost2010Prop28
280
     0
102
RTVSPost2010PropOp28
 70
     1
102
RTVSPost2010Prop29
280
     1
102
RTVSPost2010PropOp29
 70
     1
102
RTVSPost2010Prop30
280
     1
102
RTVSPost2010PropOp30
 70
     1
102
RTVSPost2010Prop31
280
     0
102
RTVSPost2010PropOp31
 70
     1
102
RTVSPost2010Prop32
280
     0
102
RTVSPost2010PropOp32
 70
     1
102
RTVSPost2010Prop33
280
     0
102
RTVSPost2010PropOp33
 70
     1
102
RTVSPost2010Prop34
280
     0
102
RTVSPost2010PropOp34
 70
     1
102
RTVSPost2010Prop35
280
     0
102
RTVSPost2010PropOp35
 70
     1
102
RTVSPost2010Prop36
280
     0
102
RTVSPost2010PropOp36
 70
     1
102
RTVSPost2010Prop37
 90
       50
102
RTVSPost2010PropOp37
 70
     1
102
RTVSPost2010Prop38
140
0.0
102
RTVSPost2010PropOp38
 70
     1
102
RTVSPost2010Prop39
140
1.0
102
RTVSPost2010PropOp39
 70
     1
102
RTVSPost2010Prop40
 90
        0
102
RTVSPost2010PropOp40
 70
     1
102
RTVSPost2010Prop41ColorIndex
 90
       18
102
RTVSPost2010Prop41ColorRGB
 90
        0
102
RTVSPost2010PropOp41
 70
     1
102
RTVSPost2010Prop42
 90
       50
102
RTVSPost2010PropOp42
 70
     1
102
RTVSPost2010Prop43
 90
        3
102
RTVSPost2010PropOp43
 70
     1
102
RTVSPost2010Prop44ColorIndex
 90
        5
102
RTVSPost2010Prop44ColorRGB
 90
      255
102
RTVSPost2010PropOp44
 70
     1
102
RTVSPost2010Prop45
280
     0
102
RTVSPost2010PropOp45
 70
     1
102
RTVSPost2010Prop46
 90
       50
102
RTVSPost2010PropOp46
 70
     1
102
RTVSPost2010Prop47
 90
       50
102
RTVSPost2010PropOp47
 70
     1
102
RTVSPost2010Prop48
 90
       50
102
RTVSPost2010PropOp48
 70
     1
102
RTVSPost2010Prop49
280
     0
102
RTVSPost2010PropOp49
 70
     1
102
RTVSPost2010Prop50
 90
       50
102
RTVSPost2010PropOp50
 70
     1
102
RTVSPost2010Prop51ColorIndex
 90
      256
102
RTVSPost2010Prop51ColorRGB
 90
-16777216
102
RTVSPost2010PropOp51
 70
     0
102
RTVSPost2010Prop52
140
1.0
102
RTVSPost2010PropOp52
 70
     0
102
RTVSPost2010Prop53
 90
        2
102
RTVSPost2010PropOp53
 70
     1
102
RTVSPost2010Prop54
  1
strokes_ogs.tif
102
RTVSPost2010PropOp54
 70
     1
102
RTVSPost2010Prop55
280
     0
102
RTVSPost2010PropOp55
 70
     1
102
RTVSPost2010Prop56
140
1.0
102
RTVSPost2010PropOp56
 70
     1
102
RTVSPost2010Prop57
140
1.0
102
RTVSPost2010PropOp57
 70
     1
  0
XRECORD
  5
1B52
102
{ACAD_REACTORS
330
1B51
102
}
330
1B51
100
AcDbXrecord
280
     1
102
RTVSPost2010Prop28
280
     0
102
RTVSPost2010PropOp28
 70
     1
102
RTVSPost2010Prop29
280
     1
102
RTVSPost2010PropOp29
 70
     1
102
RTVSPost2010Prop30
280
     1
102
RTVSPost2010PropOp30
 70
     1
102
RTVSPost2010Prop31
280
     0
102
RTVSPost2010PropOp31
 70
     1
102
RTVSPost2010Prop32
280
     0
102
RTVSPost2010PropOp32
 70
     1
102
RTVSPost2010Prop33
280
     0
102
RTVSPost2010PropOp33
 70
     1
102
RTVSPost2010Prop34
280
     0
102
RTVSPost2010PropOp34
 70
     1
102
RTVSPost2010Prop35
280
     0
102
RTVSPost2010PropOp35
 70
     1
102
RTVSPost2010Prop36
280
     0
102
RTVSPost2010PropOp36
 70
     1
102
RTVSPost2010Prop37
 90
       50
102
RTVSPost2010PropOp37
 70
     1
102
RTVSPost2010Prop38
140
0.0
102
RTVSPost2010PropOp38
 70
     1
102
RTVSPost2010Prop39
140
1.0
102
RTVSPost2010PropOp39
 70
     1
102
RTVSPost2010Prop40
 90
        0
102
RTVSPost2010PropOp40
 70
     1
102
RTVSPost2010Prop41ColorIndex
 90
       18
102
RTVSPost2010Prop41ColorRGB
 90
        0
102
RTVSPost2010PropOp41
 70
     1
102
RTVSPost2010Prop42
 90
       50
102
RTVSPost2010PropOp42
 70
     1
102
RTVSPost2010Prop43
 90
        3
102
RTVSPost2010PropOp43
 70
     1
102
RTVSPost2010Prop44ColorIndex
 90
        5
102
RTVSPost2010Prop44ColorRGB
 90
      255
102
RTVSPost2010PropOp44
 70
     1
102
RTVSPost2010Prop45
280
     0
102
RTVSPost2010PropOp45
 70
     1
102
RTVSPost2010Prop46
 90
       50
102
RTVSPost2010PropOp46
 70
     1
102
RTVSPost2010Prop47
 90
       50
102
RTVSPost2010PropOp47
 70
     1
102
RTVSPost2010Prop48
 90
       50
102
RTVSPost2010PropOp48
 70
     1
102
RTVSPost2010Prop49
280
     0
102
RTVSPost2010PropOp49
 70
     1
102
RTVSPost2010Prop50
 90
       50
102
RTVSPost2010PropOp50
 70
     1
102
RTVSPost2010Prop51ColorIndex
 90
      256
102
RTVSPost2010Prop51ColorRGB
 90
-16777216
102
RTVSPost2010PropOp51
 70
     0
102
RTVSPost2010Prop52
140
1.0
102
RTVSPost2010PropOp52
 70
     0
102
RTVSPost2010Prop53
 90
        2
102
RTVSPost2010PropOp53
 70
     1
102
RTVSPost2010Prop54
  1
strokes_ogs.tif
102
RTVSPost2010PropOp54
 70
     1
102
RTVSPost2010Prop55
280
     0
102
RTVSPost2010PropOp55
 70
     1
102
RTVSPost2010Prop56
140
1.0
102
RTVSPost2010PropOp56
 70
     1
102
RTVSPost2010Prop57
140
1.0
102
RTVSPost2010PropOp57
 70
     1
  0
XRECORD
  5
1B54
102
{ACAD_REACTORS
330
1B53
102
}
330
1B53
100
AcDbXrecord
280
     1
102
RTVSPost2010Prop28
280
     0
102
RTVSPost2010PropOp28
 70
     1
102
RTVSPost2010Prop29
280
     1
102
RTVSPost2010PropOp29
 70
     1
102
RTVSPost2010Prop30
280
     1
102
RTVSPost2010PropOp30
 70
     1
102
RTVSPost2010Prop31
280
     0
102
RTVSPost2010PropOp31
 70
     1
102
RTVSPost2010Prop32
280
     0
102
RTVSPost2010PropOp32
 70
     1
102
RTVSPost2010Prop33
280
     0
102
RTVSPost2010PropOp33
 70
     1
102
RTVSPost2010Prop34
280
     0
102
RTVSPost2010PropOp34
 70
     1
102
RTVSPost2010Prop35
280
     0
102
RTVSPost2010PropOp35
 70
     1
102
RTVSPost2010Prop36
280
     0
102
RTVSPost2010PropOp36
 70
     1
102
RTVSPost2010Prop37
 90
       50
102
RTVSPost2010PropOp37
 70
     1
102
RTVSPost2010Prop38
140
0.0
102
RTVSPost2010PropOp38
 70
     1
102
RTVSPost2010Prop39
140
1.0
102
RTVSPost2010PropOp39
 70
     1
102
RTVSPost2010Prop40
 90
        0
102
RTVSPost2010PropOp40
 70
     1
102
RTVSPost2010Prop41ColorIndex
 90
       18
102
RTVSPost2010Prop41ColorRGB
 90
        0
102
RTVSPost2010PropOp41
 70
     1
102
RTVSPost2010Prop42
 90
       50
102
RTVSPost2010PropOp42
 70
     1
102
RTVSPost2010Prop43
 90
        3
102
RTVSPost2010PropOp43
 70
     1
102
RTVSPost2010Prop44ColorIndex
 90
        5
102
RTVSPost2010Prop44ColorRGB
 90
      255
102
RTVSPost2010PropOp44
 70
     1
102
RTVSPost2010Prop45
280
     0
102
RTVSPost2010PropOp45
 70
     1
102
RTVSPost2010Prop46
 90
       50
102
RTVSPost2010PropOp46
 70
     1
102
RTVSPost2010Prop47
 90
       50
102
RTVSPost2010PropOp47
 70
     1
102
RTVSPost2010Prop48
 90
       50
102
RTVSPost2010PropOp48
 70
     1
102
RTVSPost2010Prop49
280
     0
102
RTVSPost2010PropOp49
 70
     1
102
RTVSPost2010Prop50
 90
       50
102
RTVSPost2010PropOp50
 70
     1
102
RTVSPost2010Prop51ColorIndex
 90
      256
102
RTVSPost2010Prop51ColorRGB
 90
-16777216
102
RTVSPost2010PropOp51
 70
     0
102
RTVSPost2010Prop52
140
1.0
102
RTVSPost2010PropOp52
 70
     0
102
RTVSPost2010Prop53
 90
        2
102
RTVSPost2010PropOp53
 70
     1
102
RTVSPost2010Prop54
  1
strokes_ogs.tif
102
RTVSPost2010PropOp54
 70
     1
102
RTVSPost2010Prop55
280
     0
102
RTVSPost2010PropOp55
 70
     1
102
RTVSPost2010Prop56
140
1.0
102
RTVSPost2010PropOp56
 70
     1
102
RTVSPost2010Prop57
140
1.0
102
RTVSPost2010PropOp57
 70
     1
  0
XRECORD
  5
1B44
102
{ACAD_REACTORS
330
1B43
102
}
330
1B43
100
AcDbXrecord
280
     1
102
RTVSPost2010Prop28
280
     0
102
RTVSPost2010PropOp28
 70
     1
102
RTVSPost2010Prop29
280
     1
102
RTVSPost2010PropOp29
 70
     1
102
RTVSPost2010Prop30
280
     1
102
RTVSPost2010PropOp30
 70
     1
102
RTVSPost2010Prop31
280
     0
102
RTVSPost2010PropOp31
 70
     1
102
RTVSPost2010Prop32
280
     0
102
RTVSPost2010PropOp32
 70
     1
102
RTVSPost2010Prop33
280
     0
102
RTVSPost2010PropOp33
 70
     1
102
RTVSPost2010Prop34
280
     0
102
RTVSPost2010PropOp34
 70
     1
102
RTVSPost2010Prop35
280
     0
102
RTVSPost2010PropOp35
 70
     1
102
RTVSPost2010Prop36
280
     0
102
RTVSPost2010PropOp36
 70
     1
102
RTVSPost2010Prop37
 90
       50
102
RTVSPost2010PropOp37
 70
     1
102
RTVSPost2010Prop38
140
0.0
102
RTVSPost2010PropOp38
 70
     1
102
RTVSPost2010Prop39
140
1.0
102
RTVSPost2010PropOp39
 70
     1
102
RTVSPost2010Prop40
 90
        0
102
RTVSPost2010PropOp40
 70
     1
102
RTVSPost2010Prop41ColorIndex
 90
       18
102
RTVSPost2010Prop41ColorRGB
 90
        0
102
RTVSPost2010PropOp41
 70
     1
102
RTVSPost2010Prop42
 90
       50
102
RTVSPost2010PropOp42
 70
     1
102
RTVSPost2010Prop43
 90
        3
102
RTVSPost2010PropOp43
 70
     1
102
RTVSPost2010Prop44ColorIndex
 90
        5
102
RTVSPost2010Prop44ColorRGB
 90
      255
102
RTVSPost2010PropOp44
 70
     1
102
RTVSPost2010Prop45
280
     0
102
RTVSPost2010PropOp45
 70
     1
102
RTVSPost2010Prop46
 90
       50
102
RTVSPost2010PropOp46
 70
     1
102
RTVSPost2010Prop47
 90
       50
102
RTVSPost2010PropOp47
 70
     1
102
RTVSPost2010Prop48
 90
       50
102
RTVSPost2010PropOp48
 70
     1
102
RTVSPost2010Prop49
280
     0
102
RTVSPost2010PropOp49
 70
     1
102
RTVSPost2010Prop50
 90
       50
102
RTVSPost2010PropOp50
 70
     1
102
RTVSPost2010Prop51ColorIndex
 90
      256
102
RTVSPost2010Prop51ColorRGB
 90
-16777216
102
RTVSPost2010PropOp51
 70
     0
102
RTVSPost2010Prop52
140
1.0
102
RTVSPost2010PropOp52
 70
     0
102
RTVSPost2010Prop53
 90
        2
102
RTVSPost2010PropOp53
 70
     1
102
RTVSPost2010Prop54
  1
strokes_ogs.tif
102
RTVSPost2010PropOp54
 70
     1
102
RTVSPost2010Prop55
280
     0
102
RTVSPost2010PropOp55
 70
     1
102
RTVSPost2010Prop56
140
1.0
102
RTVSPost2010PropOp56
 70
     1
102
RTVSPost2010Prop57
140
1.0
102
RTVSPost2010PropOp57
 70
     1
  0
XRECORD
  5
1B36
102
{ACAD_REACTORS
330
1B35
102
}
330
1B35
100
AcDbXrecord
280
     1
102
RTVSPost2010Prop28
280
     0
102
RTVSPost2010PropOp28
 70
     1
102
RTVSPost2010Prop29
280
     1
102
RTVSPost2010PropOp29
 70
     1
102
RTVSPost2010Prop30
280
     1
102
RTVSPost2010PropOp30
 70
     1
102
RTVSPost2010Prop31
280
     0
102
RTVSPost2010PropOp31
 70
     1
102
RTVSPost2010Prop32
280
     0
102
RTVSPost2010PropOp32
 70
     1
102
RTVSPost2010Prop33
280
     0
102
RTVSPost2010PropOp33
 70
     1
102
RTVSPost2010Prop34
280
     0
102
RTVSPost2010PropOp34
 70
     1
102
RTVSPost2010Prop35
280
     0
102
RTVSPost2010PropOp35
 70
     1
102
RTVSPost2010Prop36
280
     0
102
RTVSPost2010PropOp36
 70
     1
102
RTVSPost2010Prop37
 90
       50
102
RTVSPost2010PropOp37
 70
     1
102
RTVSPost2010Prop38
140
0.0
102
RTVSPost2010PropOp38
 70
     1
102
RTVSPost2010Prop39
140
1.0
102
RTVSPost2010PropOp39
 70
     1
102
RTVSPost2010Prop40
 90
        0
102
RTVSPost2010PropOp40
 70
     1
102
RTVSPost2010Prop41ColorIndex
 90
       18
102
RTVSPost2010Prop41ColorRGB
 90
        0
102
RTVSPost2010PropOp41
 70
     1
102
RTVSPost2010Prop42
 90
       50
102
RTVSPost2010PropOp42
 70
     1
102
RTVSPost2010Prop43
 90
        3
102
RTVSPost2010PropOp43
 70
     1
102
RTVSPost2010Prop44ColorIndex
 90
        5
102
RTVSPost2010Prop44ColorRGB
 90
      255
102
RTVSPost2010PropOp44
 70
     1
102
RTVSPost2010Prop45
280
     0
102
RTVSPost2010PropOp45
 70
     1
102
RTVSPost2010Prop46
 90
       50
102
RTVSPost2010PropOp46
 70
     1
102
RTVSPost2010Prop47
 90
       50
102
RTVSPost2010PropOp47
 70
     1
102
RTVSPost2010Prop48
 90
       50
102
RTVSPost2010PropOp48
 70
     1
102
RTVSPost2010Prop49
280
     0
102
RTVSPost2010PropOp49
 70
     1
102
RTVSPost2010Prop50
 90
       50
102
RTVSPost2010PropOp50
 70
     1
102
RTVSPost2010Prop51ColorIndex
 90
      256
102
RTVSPost2010Prop51ColorRGB
 90
-16777216
102
RTVSPost2010PropOp51
 70
     0
102
RTVSPost2010Prop52
140
1.0
102
RTVSPost2010PropOp52
 70
     0
102
RTVSPost2010Prop53
 90
        2
102
RTVSPost2010PropOp53
 70
     1
102
RTVSPost2010Prop54
  1
strokes_ogs.tif
102
RTVSPost2010PropOp54
 70
     1
102
RTVSPost2010Prop55
280
     0
102
RTVSPost2010PropOp55
 70
     1
102
RTVSPost2010Prop56
140
1.0
102
RTVSPost2010PropOp56
 70
     1
102
RTVSPost2010Prop57
140
1.0
102
RTVSPost2010PropOp57
 70
     1
  0
XRECORD
  5
1B56
102
{ACAD_REACTORS
330
1B55
102
}
330
1B55
100
AcDbXrecord
280
     1
102
RTVSPost2010Prop28
280
     0
102
RTVSPost2010PropOp28
 70
     1
102
RTVSPost2010Prop29
280
     1
102
RTVSPost2010PropOp29
 70
     1
102
RTVSPost2010Prop30
280
     1
102
RTVSPost2010PropOp30
 70
     1
102
RTVSPost2010Prop31
280
     0
102
RTVSPost2010PropOp31
 70
     1
102
RTVSPost2010Prop32
280
     0
102
RTVSPost2010PropOp32
 70
     1
102
RTVSPost2010Prop33
280
     0
102
RTVSPost2010PropOp33
 70
     1
102
RTVSPost2010Prop34
280
     0
102
RTVSPost2010PropOp34
 70
     1
102
RTVSPost2010Prop35
280
     0
102
RTVSPost2010PropOp35
 70
     1
102
RTVSPost2010Prop36
280
     0
102
RTVSPost2010PropOp36
 70
     1
102
RTVSPost2010Prop37
 90
       50
102
RTVSPost2010PropOp37
 70
     1
102
RTVSPost2010Prop38
140
0.0
102
RTVSPost2010PropOp38
 70
     1
102
RTVSPost2010Prop39
140
1.0
102
RTVSPost2010PropOp39
 70
     1
102
RTVSPost2010Prop40
 90
        0
102
RTVSPost2010PropOp40
 70
     1
102
RTVSPost2010Prop41ColorIndex
 90
       18
102
RTVSPost2010Prop41ColorRGB
 90
        0
102
RTVSPost2010PropOp41
 70
     1
102
RTVSPost2010Prop42
 90
       50
102
RTVSPost2010PropOp42
 70
     1
102
RTVSPost2010Prop43
 90
        3
102
RTVSPost2010PropOp43
 70
     1
102
RTVSPost2010Prop44ColorIndex
 90
        5
102
RTVSPost2010Prop44ColorRGB
 90
      255
102
RTVSPost2010PropOp44
 70
     1
102
RTVSPost2010Prop45
280
     0
102
RTVSPost2010PropOp45
 70
     1
102
RTVSPost2010Prop46
 90
       50
102
RTVSPost2010PropOp46
 70
     1
102
RTVSPost2010Prop47
 90
       50
102
RTVSPost2010PropOp47
 70
     1
102
RTVSPost2010Prop48
 90
       50
102
RTVSPost2010PropOp48
 70
     1
102
RTVSPost2010Prop49
280
     0
102
RTVSPost2010PropOp49
 70
     1
102
RTVSPost2010Prop50
 90
       50
102
RTVSPost2010PropOp50
 70
     1
102
RTVSPost2010Prop51ColorIndex
 90
      256
102
RTVSPost2010Prop51ColorRGB
 90
-16777216
102
RTVSPost2010PropOp51
 70
     0
102
RTVSPost2010Prop52
140
1.0
102
RTVSPost2010PropOp52
 70
     0
102
RTVSPost2010Prop53
 90
        2
102
RTVSPost2010PropOp53
 70
     1
102
RTVSPost2010Prop54
  1
strokes_ogs.tif
102
RTVSPost2010PropOp54
 70
     1
102
RTVSPost2010Prop55
280
     0
102
RTVSPost2010PropOp55
 70
     1
102
RTVSPost2010Prop56
140
1.0
102
RTVSPost2010PropOp56
 70
     1
102
RTVSPost2010Prop57
140
1.0
102
RTVSPost2010PropOp57
 70
     1
  0
ENDSEC
  0
SECTION
  2
THUMBNAILIMAGE
 90
    24616
310
28000000800000004000000001001800000000000000000000000000000000000000000000000000000000000000000000000000000000000000000000000000000000000000000000000000000000000000000000000000000000000000000000000000FFFFFFFFFFFFFFFFFFFFFFFFFFFFFFFFFFFFFFFFFFFFFFFFFFFFFF
310
FFFFFFFFFFFFFFFFFFFFFFFFFFFFFFFFFFFFFFFFFFFFFFFFFFFFFFFFFFFFFFFFFFFFFFFFFFFFFFFFFFFFFFFFFFFFFFFFFFFFFFFFFFFFFFFFFFFFFFFFFFFFFFFFFFFFFFFFFFFFFFFFFFFFFFFFFFFFFFFFFFFFFFFFFFFFFFFFFFFFFFFFFFFFFFFFFFFFFFFFFFFFFFFFFFFFFFFFFFFFFFFFFFFFFFFFFFFFFFFFFFFFFFFFFFFFFF
310
FFFFFFFFFFFFFFFFFFFFFFFFFFFFFFFFFFFFFFFFFFFFFFFFFFFFFFFFFFFFFFFFFFFFFFFFFFFFFFFFFFFFFFFFFFFFFFFFFFFFFFFFFFFFFFFFFFFFFFFFFFFFFFFFFFFFFFFFFFFFFFFFFFFFFFFFFFFFFFFFFFFFFFFFFFFFFFFFFFFFFFFFFFFFFFFFFFFFFFFFFFFFFFFFFFFFFFFFFFFFFFFFFF0000000000000000000000000000
310
00000000000000000000000000000000000000000000000000000000000000000000000000000000000000000000000000000000000000000000000000000000000000000000000000000000000000000000000000000000000000000000000000000000000000FFFFFF000000000000000000000000000000000000000000
310
00000000000000000000000000000000000000000000000000000000000000000000000000000000000000000000000000000000000000000000000000000000000000000000000000000000000000000000000000000000000000000000000000000000000000000000000000000000000000000000000000000000000000
310
0000000000000000000000000000000000000000000000000000000000000000000000000000000000000000000000000000000000000000000000000000000000000000000000000000000000000000000000000000000000000000000000000000000000000000000000000000000000FFFFFF0000000000000000000000
310
00000000000000000000000000000000000000000000000000000000000000000000000000000000000000000000000000000000000000000000000000000000000000000000000000000000000000000000000000000000000000000000000000000000000000000000FFFFFF00000000BFFF00BFFF00BFFF00BFFF00BFFF
310
00BFFF00BFFF00BFFF00BFFF00BFFF00BFFF00BFFF00BFFF00BFFF00BFFF00BFFF00BFFF00BFFF00BFFF00BFFF00BFFF00BFFF00BFFF00BFFF00BFFF00BFFF00BFFF00BFFF00BFFF00BFFF00BFFF00BFFF00BFFF00BFFF00BFFF00BFFF00BFFF00BFFF00BFFF00BFFF00BFFF00BFFF00BFFF00BFFF00BFFF00BFFF00BFFFFF
310
FFFFFFFFFFFFFFFFFFFFFFFFFFFFFFFFFFFFFFFFFFFFFFFFFFFFFFFFFFFFFFFFFFFFFFFFFFFFFFFFFFFFFFFFFFFFFFFFFFFFFFFFFFFFFFFFFFFFFFFFFFFFFFFFFFFFFFFFFFFFFFFFFFFFFFFFFFFFFFFF007299FFFFFFFFFFFFFFFFFFFFFFFFFFFFFFFFFFFFFFFFFFFFFFFFFFFFFFFFFFFF000000FFFFFF0000000000000000
310
00000000000000000000000000000000000000000000000000000000000000000000000000000000000000000000000000000000000000000000000000000000000000000000000000000000000000000000000000000000000000000000000000000000000000000000000000FFFFFF00000000BFFF000000000000000000
310
00000000000000000000000000000000000000000000000000000000000000000000000000000000000000000000000000000000000000000000000000000000000000000000000000000000000000000000000000000000000000000000000000000000000000000000000000000000000000000000000000000000000000
310
0000FFFFFFFFFFFFFFFFFFFFFFFFFFFFFFFFFFFFFFFFFFFFFFFFFFFFFFFFFFFFFFFFFFFFFFFFFFFFFFFFFFFFFFFFFFFFFFFFFFFFFFFFFFFFFFFFFFFFFFFFFFFFFFFFFFFFFFFFFFFFFFFF007299007299007299007299FFFFFFFFFFFFFFFFFFFFFFFFFFFFFFFFFFFFFFFFFFFFFFFFFFFFFFFFFFFF000000FFFFFF0000000000
310
00000000000000000000000000000000000000000000000000000000000000000000000000000000000000000000000000000000000000000000000000000000000000000000000000000000000000000000000000000000000000000000000000000000000000000000000000000000FFFFFF00000000BFFF000000000000
310
00000000000000000000000000000000000000000000000000000000000000000000000000000000000000000000000000000000000000000000000000000000000000000000000000000000000000000000000000000000000000000000000000000000000000000000000000000000000000000000000000000000000000
310
0000000000FFFFFFFFFFFFFFFFFFFFFFFFFFFFFFFFFFFFFFFFFFFFFFFFFFFFFFFFFFFFFFFFFFFFFFFFFFFFFFFFFFFFFFFFFFFFFFFFFFFFFFFFFFFFFFFFFFFFFFFFFFFFFFFFFFFFFFFFFFFFFFFF007299007299007299007299FFFFFFFFFFFFFFFFFFFFFFFFFFFFFFFFFFFF000000000000000000FFFFFF000000FFFFFF0000
310
00000000000000000000000000000000000000000000000000000000000000000000000000000000000000000000000000000000000000000000000000000000000000000000000000000000000000000000000000000000000000000000000000000000000000000000000000000000000000FFFFFF00000000BFFF000000
310
00000000000000000000000000000000000000000000000000000000000000000000000000000000000000000000000000000000000000000000000000000000000000000000000000000000000000000000000000000000000000000000000000000000000000000000000000000000000000000000000000000000000000
310
0000000000000000FFFFFFFFFFFFFFFFFFFFFFFFFFFFFFFFFFFFFFFFFFFFFFFFFFFFFFFFFFFFFFFFFFFFFFFFFFFFFFFFFFFFFFFFFFFFFFFFFFFFFFFFFFFFFFFFFFFFFFFFFFFFFFFFFFFFFFFFFFFFFFFFFFFFFF007299FFFFFFFFFFFFFFFFFFFFFFFFFFFFFFFFFFFFFFFFFFFFFFFFFFFFFFFFFFFFFFFFFFFFFFFF000000FFFF
310
FF000000000000000000000000000000000000000000000000000000000000000000000000000000000000000000000000000000000000000000000000000000000000000000000000000000000000000000000000000000000000000000000000000000000000000000000000000000000000000000FFFFFF00000000BFFF
310
00000000000000000000000000000000000000000000000000000000000000000000000000000000000000000000000000000000000000000000000000000000000000000000000000000000000000000000000000000000000000000000000000000000000000000000000000000000000000000000000000000000000000
310
0000000000000000000000000000000000000000000000000000000000000000000000000000000000000000000000000000000000000000000000000000000000000000000000000000000000000000FFFFFF007299007299007299FFFFFFFFFFFFFFFFFFFFFFFFFFFFFFFFFFFFFFFFFFFFFFFFFFFFFFFFFFFFFFFFFF0000
310
00FFFFFF000000000000000000000000000000000000000000000000000000000000000000000000000000000000000000000000000000000000000000000000000000000000000000000000000000000000000000000000000000000000000000000000000000000000000000000000000000000000000000FFFFFF000000
310
00BFFF00000000000000000000000000000000000000000000000000000000000000000000000000000000000000000000000000000000000000000000000000000000000000000000000000000000000000000000000000000000000000000000000000000000000000000000000000000000000000000000000000000000
310
0000000000000000000000000000000000000000000000000000000000000000000000000000000000000000000000000000000000000000000000000000000000000000000000000000000000000000000000FFFFFFFFFFFFFFFFFFFFFFFFFFFFFFFFFFFFFFFFFFFFFFFF000000000000000000000000000000000000FFFF
310
FF000000FFFFFF000000000000000000000000000000000000000000000000000000000000000000000000000000000000000000000000000000000000000000000000000000000000000000000000000000000000000000000000000000000000000000000000000000000000000000000000000000000000000000FFFFFF
310
00000000BFFF00000000000000000000000000000000000000000000000000000000000000000000000000000000000000000000000000000000000000000000000000000000000000000000000000000000000000000000000000000000000000000000000000000000000000000000000000000000000000000000000000
310
0000000000000000000000000000000000000000000000000000000000000000000000000000000000000000000000000000000000000000000000000000000000000000000000000000000000000000000000000000FFFFFFFFFFFFFFFFFFFFFFFFFFFFFFFFFFFFFFFFFFFFFFFFFFFFFFFFFFFFFFFFFFFFFFFFFFFFFFFFFF
310
FFFFFFFF000000FFFFFF000000000000000000000000000000000000000000000000000000000000000000000000000000000000000000000000000000000000000000000000000000000000000000000000000000000000000000000000000000000000000000000000000000000000000000000000000000000000000000
310
FFFFFF00000000BFFF00000000000000000000000000000000000000000000000000000000000000000000000000000000000000000000000000000000000000000000000000000000000000000000000000000000000000000000000000000000000000000000000000000000000000000000000000000000000000000000
310
0000000000000000000000000000000000000000000000000000000000000000000000000000000000000000000000000000000000000000000000000000000000000000000000000000000000000000000000000000000000FFFFFFFFFFFFFFFFFFFFFFFFFFFFFFFFFFFFFFFFFFFFFFFFFFFFFFFFFFFFFFFFFFFFFFFFFFFF
310
FF000000FFFFFF000000FFFFFF000000000000000000000000000000000000000000000000000000000000000000000000000000000000000000000000000000000000000000000000000000000000000000000000000000000000000000000000000000000000000000000000000000000000000000000000000000000000
310
000000FFFFFF00000000BFFF00000000000000000000000000000000000000000000000000000000000000000000000000000000000000000000000000000000000000000000000000000000000000000000000000000000000000000000000000000000000000000000000000000000000000000000000000000000000000
310
0000000000000000000000000000000000000000000000000000000000000000000000000000000000000000000000000000000000000000000000000000000000000000000000000000000000000000000000000000000000000000FFFFFFFFFFFF007299FFFFFF007299FFFFFFFFFFFFFFFFFFFFFFFFFFFFFFFFFFFFFFFF
310
FFFFFFFFFFFFFFFFFFFF000000FFFFFF000000000000000000000000000000000000000000000000000000000000000000000000000000000000000000000000000000000000000000000000000000000000000000000000000000000000000000000000000000000000000000000000000000000000000000000000000000
310
000000000000FFFFFF00000000BFFF00000000000000000000000000000000000000000000000000000000000000000000000000000000000000000000000000000000000000000000000000000000000000000000000000000000000000000000000000000000000000000000000000000000000000000000000000000000
310
0000000000000000000000000000000000000000000000000000000000000000000000000000000000000000000000000000000000000000000000000000000000000000000000000000000000000000000000000000000000000000000000000000FFFFFFFFFFFFFFFFFFFFFFFFFFFFFFFFFFFFFFFFFFFFFFFFFFFFFFFFFF
310
FFFFFFFFFFFFFFFFFFFFFFFFFF000000FFFFFF000000000000000000000000000000000000000000000000000000000000000000000000000000000000000000000000000000000000000000000000000000000000000000000000000000000000000000000000000000000000000000000000000000000000000000000000
310
000000000000000000FFFFFF00000000BFFF00000000000000000000000000000000000000000000000000000000000000000000000000000000000000000000000000000000000000000000000000000000000000000000000000000000000000000000000000000000000000000000000000000000000000000000000000
310
00000000000000000000000000000000000000000000000000000000000000000000000000000000000000000000000000000000000000000000000000000000000000000000000000000000000000000000000000000000000000000000000000000000000000000000000000000000000000000000000000000000000000
310
0000000000000000000000000000BFFF000000FFFFFF000000000000000000000000000000000000000000000000000000000000000000000000000000000000000000000000000000000000000000000000000000000000000000000000000000000000000000000000000000000000000000000000000000000000000000
310
000000000000000000000000FFFFFF00000000BFFF00000000000000000000000000000000000000000000000000000000000000000000000000000000000000000000000000000000000000000000000000000000000000000000000000000000000000000000000000000000000000000000000000000000000000000000
310
00000000000000000000000000000000000000000000000000000000000000000000000000000000000000000000000000000000000000000000000000000000000000000000000000000000000000000000000000000000000000000000000000000000000000000000000000000000000000000000000000000000000000
310
0000000000000000000000000000000000BFFF000000FFFFFF000000000000000000000000000000000000000000000000000000000000000000000000000000000000000000000000000000000000000000000000000000000000000000000000000000000000000000000000000000000000000000000000000000000000
310
000000000000000000000000000000FFFFFF00000000BFFF00000000000000000000000000000000000000000000000000000000000000000000000000000000000000000000000000000000000000000000000000000000000000000000000000000000000000000000000000000000000000000000000000000000000000
310
00000000000000000000000000000000000000000000000000000000000000000000000000000000000000000000000000000000000000000000000000000000000000000000000000000000000000000000000000000000000000000000000000000000000000000000000000000000000000000000000000000000000000
310
0000000000000000000000000000000000000000BFFF000000FFFFFF000000000000000000000000000000000000000000000000000000000000000000000000000000000000000000000000000000000000000000000000000000000000000000000000000000000000000000000000000000000000000000000000000000
310
000000000000000000000000000000000000FFFFFF00000000BFFF00000000000000000000000000000000000000000000000000000000000000000000000000000000000000000000000000000000000000000000000000000000000000000000000000000000000000000000000000000000000000000000000000000000
310
00000000000000000000000000000000000000000000000000000000000000000000000000000000000000000000000000000000000000000000000000000000000000000000000000000000000000000000000000000000000000000000000000000000000000000000000000000000000000000000000000000000000000
310
0000000000000000000000000000000000000000000000BFFF000000FFFFFF000000000000000000000000000000000000000000000000000000000000000000000000000000000000000000000000000000000000000000000000000000000000000000000000000000000000000000000000000000000000000000000000
310
000000000000000000000000000000000000000000FFFFFF00000000BFFF00000000000000000000000000000000000000000000000000000000000000000000000000000000000000000000000000000000000000000000000000000000000000000000000000000000000000000000000000000000000000000000000000
310
00000000000000000000000000000000000000000000000000000000000000000000000000000000000000000000000000000000000000000000000000000000000000000000000000000000000000000000000000000000000000000000000000000000000000000000000000000000000000000000000000000000000000
310
0000000000000000000000000000000000000000000000000000BFFF000000FFFFFF000000000000000000000000000000000000000000000000000000000000000000000000000000000000000000000000000000000000000000000000000000000000000000000000000000000000000000000000000000000000000000
310
000000000000000000000000000000000000000000000000FFFFFF00000000BFFF00000000000000000000000000000000000000000000000000000000000000000000000000000000000000000000000000000000000000000000000000000000000000000000000000000000000000000000000000000000000000000000
310
00000000000000000000000000000000000000000000000000000000000000000000000000000000000000000000000000000000000000000000000000000000000000000000000000000000000000000000000000000000000000000000000000000000000000000000000000000000000000000000000000000000000000
310
0000000000000000000000000000000000000000000000000000000000BFFF000000FFFFFF000000000000000000000000000000000000000000000000000000000000000000000000000000000000000000000000000000000000000000000000000000000000000000000000000000000000000000000000000000000000
310
000000000000000000000000000000000000000000000000000000FFFFFF00000000BFFF00000000000000000000000000000000000000000000000000000000000000000000000000000000000000000000000000000000000000000000000000000000000000000000000000000000000000000000000000000000000000
310
00000000000000000000000000000000000000000000000000000000000000000000000000000000000000000000000000000000000000000000000000000000000000000000000000000000000000000000000000000000000000000000000000000000000000000000000000000000000000000000000000000000000000
310
0000000000000000000000000000000000000000000000000000000000000000BFFF000000FFFFFF000000000000000000000000000000000000000000000000000000000000000000000000000000000000000000000000000000000000000000000000000000000000000000000000000000000000000000000000000000
310
000000000000000000000000000000000000000000000000000000000000FFFFFF00000000BFFF000000000000000000000000000000000000000000000000000000000000000000000000000000000000000000000000000000000000000000000000000000000000000000000000000000000000000000000000000000FF
310
FFFFFFFFFFFFFFFFFFFFFFFFFFFFFFFFFF0000000000000000000000000000000000000000000000000000000000000000000000000000000000000000000000000000000000000000000000000000000000000000000000000000000000000000000000000000000000000000000000000000000000000000000000000000
310
0000000000000000000000000000000000000000000000000000000000000000000000BFFF000000FFFFFF000000000000000000000000000000000000000000000000000000000000000000000000000000000000000000000000000000000000000000000000000000000000000000000000000000000000000000000000
310
000000000000000000000000000000000000000000000000000000000000000000FFFFFF00000000BFFF00000000000000000000000000000000000000000000000000000000000000000000000000000000000000000000000000000000000000000000000000000000000000000000000000000000000000000000000000
310
0000FFFFFFFFFFFFFFFFFFFFFFFFFFFFFFFFFFFF0000000000000000000000000000000000000000000000000000000000000000000000000000000000000000000000000000000000000000000000000000000000000000000000000000000000000000000000000000000000000000000000000000000000000000000000
310
0000000000000000000000000000000000000000000000000000000000000000000000000000BFFF000000FFFFFF000000000000000000000000000000000000000000000000000000000000000000000000000000000000000000000000000000000000000000000000000000000000000000000000000000000000000000
310
000000000000000000000000000000000000000000000000000000000000000000000000FFFFFF00000000BFFF00000000000000000000000000000000000000000000000000000000000000000000000000000000000000000000000000000000000000000000000000000000000000000000000000000000000000000000
310
00000000000000000000000000000000000000000000000000000000000000000000000000000000000000000000000000000000000000000000000000000000000000000000000000000000000000000000000000000000000000000000000000000000000000000000000000000000000000000000000000000000000000
310
0000000000000000000000000000000000000000000000000000000000000000000000000000000000BFFF000000FFFFFF000000000000000000000000000000000000000000000000000000000000000000000000000000000000000000000000000000000000000000000000000000000000000000000000000000000000
310
000000000000000000000000000000000000000000000000000000000000000000000000000000FFFFFF00000000BFFF00000000000000000000000000000000000000000000000000000000000000000000000000000000000000000000000000000000000000000000000000000000000000000000000000000000000000
310
00000000000000000000000000000000000000000000000000000000000000000000000000000000000000000000000000000000000000000000000000000000000000000000000000000000000000000000000000000000000000000000000000000000000000000000000000000000000000000000000000000000000000
310
0000000000000000000000000000000000000000000000000000000000000000000000000000000000000000BFFF000000FFFFFF000000000000000000000000000000000000000000000000000000000000000000000000000000000000000000000000000000000000000000000000000000000000000000000000000000
310
000000000000000000000000000000000000000000000000000000000000000000000000000000000000FFFFFF00000000BFFF000000000000000000000000000000000000000000000000000000000000000000000000000000000000000000000000000000000000000000FFFFFFFFFFFFFFFFFFFFFFFFFFFFFFFFFFFF00
310
0000000000000000000000FFFFFFFFFFFFFFFFFFFFFFFFFFFFFFFFFFFFFFFFFFFFFFFFFFFFFF4C85994C85994C85994C85994C85994C85994C85994C85994C85994C85994C85994C85994C85994C85994C85994C85994C85994C85994C85994C85994C85994C85994C85994C85994C85994C85994C85994C85994C85994C85
310
994C85994C85994C85994C85994C85994C85994C859900000000000000000000000000000000000000000000000000BFFF000000FFFFFF000000000000000000000000000000000000000000000000000000000000000000000000000000000000000000000000000000000000000000000000000000000000000000000000
310
000000000000000000000000000000000000000000000000000000000000000000000000000000000000000000FFFFFF00000000BFFF000000000000000000000000000000000000000000000000000000000000000000000000000000000000000000000000000000000000000000FFFFFFFFFFFFFFFFFFFFFFFFFFFFFFFF
310
FFFFFFFFFF000000000000000000FFFFFF4C85994C85994C85994C85994C85994C85990000000000004C85994C85994C85994C85994C85994C85994C85994C85994C85994C85994C85994C85994C85994C85994C85994C85994C85994C85994C85994C85994C85994C85994C85994C85994C85994C85994C85990000004C85
310
994C85994C85994C85994C85994C85994C85994C85994C859900000000000000000000000000000000000000000000000000BFFF000000FFFFFF000000000000000000000000000000000000000000000000000000000000000000000000000000000000000000000000000000000000000000000000000000000000000000
310
000000000000000000000000000000000000000000000000000000000000000000000000000000000000000000000000FFFFFF00000000BFFF00000000000000000000000000000000000000000000000000000000000000000000000000000000000000000000000000000000000000000000000000000000000000000000
310
0000000000000000FFFFFF000000000000FFFFFF4C85994C85994C85994C85994C85994C85994C85994C85990000004C85994C85994C85994C85994C85994C85994C85994C85994C85994C85990000000000004C85994C85994C85994C85994C85994C85994C85994C85994C85994C85994C85994C85990000004C85994C85
310
994C85994C85994C85994C85994C85994C85994C85994C85994C859900000000000000000000000000000000000000000000000000BFFF000000FFFFFF000000000000000000000000000000000000000000000000000000000000000000000000000000000000000000000000000000000000000000000000000000000000
310
000000000000000000000000000000000000000000000000000000000000000000000000000000000000000000000000000000FFFFFF00000000BFFF00000000000000000000000000000000000000000000000000000000000000000000000000000000000000000000000000000000000000000000000000000000000000
310
0000000000000000000000FFFFFF000000000000FFFFFF4C85994C85994C85994C85994C85994C85994C85994C85994C85994C85994C85994C85994C85994C85994C85994C85994C85994C85994C85994C85994C85994C85994C85994C85994C85994C85994C85994C85994C85994C85994C85994C85994C85994C85994C85
310
994C85994C85994C85994C85994C85994C85994C85994C85994C85994C859900000000000000000000000000000000000000000000000000BFFF000000FFFFFF000000000000000000000000000000000000000000000000000000000000000000000000000000000000000000000000000000000000000000000000000000
310
000000000000000000000000000000000000000000000000000000000000000000000000000000000000000000000000000000000000FFFFFF00000000BFFF00000000000000000000000000000000000000000000000000000000000000000000000000000000000000000000000000000000000000000000000000000000
310
0000000000000000000000000000000000FFFFFF000000FFFFFF0000000000000000000000000000000000000000000000000000000000000000000000004C85990000000000000000000000000000000000000000000000000000000000000000000000004C85990000000000000000000000000000000000000000000000
310
000000000000000000004C859900000000000000000000000000000000000000000000000000000000000000000000000000000000000000000000BFFF000000FFFFFF000000000000000000000000000000000000000000000000000000000000000000000000000000000000000000000000000000000000000000000000
310
000000000000000000000000000000000000000000000000000000000000000000000000000000000000000000000000000000000000000000FFFFFF00000000BFFF00000000000000000000000000000000000000000000000000000000000000000000000000000000000000000000000000000000000000000000000000
310
0000000000000000000000000000000000000000000000FFFFFFFFFFFF4C85994C85994C85994C85994C85994C85994C85994C85994C85994C85994C85994C85994C85994C85994C85994C85994C85994C85994C85994C85994C85994C85994C85994C85994C85994C85994C85994C85994C85994C85994C85994C85994C85
310
994C85994C85994C85994C85994C85994C85994C85994C85994C85994C85994C85994C859900000000000000000000000000000000000000000000000000BFFF000000FFFFFF000000000000000000000000000000000000000000000000000000000000000000000000000000000000000000000000000000000000000000
310
000000000000000000000000000000000000000000000000000000000000000000000000000000000000000000000000000000000000000000000000FFFFFF00000000BFFF000000000000000000000000000000000000000000000000000000000000000000000000000000000000000000000000FFFFFFFFFFFFFFFFFFFF
310
FFFFFFFFFFFFFFFFFFFFFFFFFFFFFFFFFFFFFFFF000000000000FFFFFFFFFFFF0000000000000000004C85994C85994C85990072994C85994C85994C85994C85994C85994C85990000000000000000000000000000000000000000000000000000000000000000000000000000000000000000004C85994C85994C85994C85
310
994C85994C85994C85994C85994C85994C859900000000000000000000000000000000000000000000000000000000000000000000000000000000000000000000BFFF000000FFFFFF000000000000000000000000000000000000000000000000000000000000000000000000000000000000000000000000000000000000
310
000000000000000000000000000000000000000000000000000000000000000000000000000000000000000000000000000000000000000000000000000000FFFFFF00000000BFFF000000000000000000000000000000000000000000000000000000000000000000000000000000000000000000000000FFFFFFFFFFFFFF
310
FFFFFFFFFFFFFFFFFFFFFFFFFFFFFFFFFFFFFFFFFFFFFF000000000000000000FFFFFF4C85994C85994C8599000000000000FFFFFFFFFFFF4C85994C85994C85990000000000000000004C85994C85994C85994C85994C85994C85994C85994C85994C85994C85994C85994C85994C85994C85994C85990000000000004C85
310
994C85994C85994C85994C85990000000000000000004C85994C85994C85994C85994C85994C85994C859900000000000000000000000000000000000000000000000000BFFF000000FFFFFF000000000000000000000000000000000000000000000000000000000000000000000000000000000000000000000000000000
310
000000000000000000000000000000000000000000000000000000000000000000000000000000000000000000000000000000000000000000000000000000000000FFFFFF00000000BFFF00000000000000000000000000000000000000000000000000000000000000000000000000000000000000000000000000000000
310
0000000000000000000000000000000000000000000000000000FFFFFF000000000000FFFFFF4C85994C85994C85994C85994C8599FFFFFFFFFFFF4C85994C85994C85994C85994C85994C85994C85994C85994C85994C85994C85994C85994C85994C85994C85994C85994C85994C85994C85994C85994C85994C85994C85
310
994C85994C85994C85994C85994C85994C85994C85994C85994C85994C85994C85994C85994C85994C85994C859900000000000000000000000000000000000000000000000000BFFF000000FFFFFF000000000000000000000000000000000000000000000000000000000000000000000000000000000000000000000000
310
000000000000000000000000000000000000000000000000000000000000000000000000000000000000000000000000000000000000000000000000000000000000000000FFFFFF00000000BFFF00000000000000000000000000000000000000000000000000000000000000000000000000000000000000000000000000
310
0000000000000000000000000000000000000000000000000000000000FFFFFF000000000000FFFFFF000000000000000000000000000000FFFFFFFFFFFF0000000000000000000000000000004C85990000000000000000000000000000000000000000000000000000000000000000000000004C85990000000000000000
310
000000000000000000000000000000000000000000000000004C859900000000000000000000000000000000000000000000000000000000000000000000000000000000000000000000BFFF000000FFFFFF000000000000000000000000000000000000000000000000000000000000000000000000000000000000000000
310
000000000000000000000000000000000000000000000000000000000000000000000000000000000000000000000000000000000000000000000000000000000000000000000000FFFFFF00000000BFFF00000000000000000000000000000000000000000000000000000000000000000000000000000000000000000000
310
0000000000000000000000000000000000000000000000000000000000000000000000FFFFFF000000FFFFFF000000000000000000000000000000FFFFFFFFFFFF0000000000000000000000000000004C85990000000000000000000000000000000000000000000000000000000000000000000000004C85990000000000
310
000000000000000000000000000000000000000000000000000000004C859900000000000000000000000000000000000000000000000000000000000000000000000000000000000000000000BFFF000000FFFFFF000000000000000000000000000000000000000000000000000000000000000000000000000000000000
310
000000000000000000000000000000000000000000000000000000000000000000000000000000000000000000000000000000000000000000000000000000000000000000000000000000FFFFFF00000000BFFF00000000000000000000000000000000000000000000000000000000000000000000000000000000000000
310
0000000000000000000000000000000000000000000000000000000000000000000000000000FFFFFF000000FFFFFF4C85994C85994C85994C85994C8599FFFFFFFFFFFF4C85994C85994C85994C85994C85994C85994C85994C85994C85994C85994C85994C85994C85994C85994C85994C85994C85994C85994C85994C85
310
994C85994C85994C85994C85994C85994C85994C85994C85994C85994C85994C85994C85994C85994C85994C85994C85994C85994C859900000000000000000000000000000000000000000000000000BFFF000000FFFFFF000000000000000000000000000000000000000000000000000000000000000000000000000000
310
000000000000000000000000000000000000000000000000000000000000000000000000000000000000000000000000000000000000000000000000000000000000000000000000000000000000FFFFFF00000000BFFF00000000000000000000000000000000000000000000000000000000000000000000000000000000
310
0000000000000000000000000000000000000000000000000000000000000000000000000000000000FFFFFFFFFFFFFFFFFF4C85994C85994C85994C85994C8599FFFFFFFFFFFF4C85994C85994C85994C85994C85994C85994C85994C85994C85994C85994C85994C85994C85994C85994C85990000000000004C85994C85
310
994C85994C85994C85994C85994C85994C85994C85994C85994C85994C85994C85994C85994C85994C85994C85994C85994C85994C85994C859900000000000000000000000000000000000000000000000000BFFF000000FFFFFF000000000000000000000000000000000000000000000000000000000000000000000000
310
000000000000000000000000000000000000000000000000000000000000000000000000000000000000000000000000000000000000000000000000000000000000000000000000000000000000000000FFFFFF00000000BFFF00000000000000000000000000000000000000000000000000000000000000000000000000
310
0000000000000000000000000000000000000000000000000000000000000000000000000000000000000000FFFFFFFFFFFFFFFFFFFFFFFFFFFFFFFFFFFFFFFFFFFFFFFFFFFFFFFFFFFFFFFFFFFFFFFFFFFFFFFFFFFFFFFFFFFFFFFFFFFFFFFFFFFFFFFFFFFFFFFFFFFFFFFFFFFFFFFFFFFFFFFFFFFFFFFFFFFFFFFFFFFFFF
310
FFFFFFFFFFFFFFFFFFFFFFFFFFFFFFFFFFFFFFFFFFFFFFFFFFFFFFFFFFFFFFFFFFFFFFFFFFFFFFFFFFFFFFFFFFFFFFFFFFFFFFFFFFFFFFFFFFFFFFFFFF00000000000000000000000000000000000000000000000000BFFF000000FFFFFF000000000000000000000000000000000000000000000000000000000000000000
310
000000000000000000000000000000000000000000000000000000000000000000000000000000000000000000000000000000000000000000000000000000000000000000000000000000000000000000000000FFFFFF00000000BFFF00000000000000000000000000000000000000000000000000000000000000000000
310
0000000000000000000000000000000000000000000000000000000000000000000000000000000000000000000000FFFFFFFFFFFFFFFFFFFFFFFFFFFFFFFFFFFFFFFFFFFFFFFFFFFFFFFFFFFFFFFFFFFFFFFFFFFFFFFFFFFF000000FFFFFFFFFFFFFFFFFFFFFFFFFFFFFFFFFFFFFFFFFFFFFFFFFFFFFFFFFFFFFFFFFFFFFF
310
FFFFFFFFFFFFFFFFFFFFFFFFFFFFFFFFFFFFFFFFFFFFFFFFFFFFFFFFFFFFFFFFFFFFFFFFFFFFFFFFFFFFFFFFFFFFFFFFFFFFFFFFFFFFFFFFFFFFFFFFFFFFFFFF00000000000000000000000000000000000000000000000000BFFF000000FFFFFF000000000000000000000000000000000000000000000000000000000000
310
000000000000000000000000000000000000000000000000000000000000000000000000000000000000000000000000000000000000000000000000000000000000000000000000000000000000000000000000000000FFFFFF00000000BFFF00000000000000000000000000000000000000000000000000000000000000
310
0000000000000000000000000000000000000000000000000000000000000000000000000000000000000000000000000000FFFFFFFFFFFFFFFFFFFFFFFFFFFFFFFFFFFFFFFFFFFFFFFFFFFFFFFFFFFFFFFFFFFFFFFF000000FFFFFFFFFFFF000000000000000000000000000000000000000000000000000000000000FFFF
310
FF00000000000000000000000000000000000000000000000000000000000000000000000000000000000000000000000000000000000000000000000000000000000000000000000000000000000000000000000000000000000000BFFF000000FFFFFF000000000000000000000000000000000000000000000000000000
310
000000000000000000000000000000000000000000000000000000000000000000000000000000000000000000000000000000000000000000000000000000000000000000000000000000000000000000000000000000000000FFFFFF00000000BFFF00000000000000000000000000000000000000000000000000000000
310
0000000000000000000000000000000000000000000000000000000000000000000000000000000000000000000000000000000000000000FFFFFFFFFFFFFFFFFFFFFFFFFFFFFFFFFFFFFFFFFFFFFFFFFFFFFFFFFFFFFFFFFFFFFFFF0000000000000000000000000000000000000000000000000000000000000000000000
310
00000000FFFFFF00000000000000000000000000000000000000000000000000000000000000000000000000000000000000000000000000000000000000000000000000000000000000000000000000000000000000000000000000000000BFFF000000FFFFFF000000000000000000000000000000000000000000000000
310
000000000000000000000000000000000000000000000000000000000000000000000000000000000000000000000000000000000000000000000000000000000000000000000000000000000000000000000000000000000000000000FFFFFF00000000BFFF00000000000000000000000000000000000000000000000000
310
0000000000000000000000000000000000000000000000000000000000000000000000000000000000000000000000000000000000000000FFFFFF000000000000000000000000000000000000FFFFFF0000000000000000000000000000000000000000000000000000000000000000000000000000000000000000000000
310
00000000000000000000FFFFFF00000000000000000000000000000000000000000000000000000000000000000000000000000000000000000000000000000000000000000000000000000000000000000000000000000000000000000000000000BFFF000000FFFFFF000000000000000000000000000000000000000000
310
000000000000000000000000000000000000000000000000000000000000000000000000000000000000000000000000000000000000000000000000000000000000000000000000000000000000000000000000000000000000000000000000FFFFFF00000000BFFF00000000000000000000000000000000000000000000
310
0000000000000000000000000000000000000000000000000000000000000000000000000000000000000000000000000000000000000000000000FFFFFF000000000000000000000000000000000000FFFFFF0000000000000000000000000000000000000000000000000000000000000000000000000000000000000000
310
00000000000000000000000000FFFFFFFFFFFFFFFFFFFFFFFFFFFFFFFFFFFF00000000000000000000000000000000000000000000000000000000000000000000000000000000000000000000000000000000000000000000000000000000000000000000BFFF000000FFFFFF000000000000000000000000000000000000
310
000000000000000000000000000000000000000000000000000000000000000000000000000000000000000000000000000000000000000000000000000000000000000000000000000000000000000000000000000000000000000000000000000000FFFFFF00000000BFFF00000000000000000000000000000000000000
310
0000000000000000000000000000000000000000000000000000000000000000000000000000000000000000FFFFFFFFFFFFFFFFFFFFFFFFFFFFFFFFFFFF000000000000000000000000000000000000000000000000FFFFFFFFFFFFFFFFFFFFFFFFFFFFFFFFFFFFFFFFFFFFFFFFFFFFFFFFFFFFFFFFFFFFFFFF0000000000
310
00000000000000000000000000000000000000FFFFFFFFFFFFFFFFFFFFFFFFFFFFFF00000000000000000000000000000000000000000000000000000000000000000000000000000000000000000000000000000000000000000000000000000000000000000000BFFF000000FFFFFF000000000000000000000000000000
310
000000000000000000000000000000000000000000000000000000000000000000000000000000000000000000000000000000000000000000000000000000000000000000000000000000000000000000000000000000000000000000000000000000000000FFFFFF00000000BFFF00000000000000000000000000000000
310
0000000000000000000000000000000000000000000000000000000000000000000000000000000000000000000000000000000000000000000000000000000000000000000000000000000000000000000000000000000000FFFFFFFFFFFFFFFFFFFFFFFFFFFFFFFFFFFFFFFFFFFFFFFFFFFFFFFFFFFFFFFFFFFFFFFF0000
310
00000000000000000000000000000000000000000000FFFFFFFFFFFFFFFFFFFFFFFFFFFFFF00000000000000000000000000000000000000000000000000000000000000000000000000000000000000000000000000000000000000000000000000000000000000000000BFFF000000FFFFFF000000000000000000000000
310
000000000000000000000000000000000000000000000000000000000000000000000000000000000000000000000000000000000000000000000000000000000000000000000000000000000000000000000000000000000000000000000000000000000000000000FFFFFF00000000BFFF00000000000000000000000000
310
0000000000000000000000000000000000000000000000000000000000000000000000000000000000000000000000000000000000000000000000000000000000000000000000000000000000000000000000000000000000000000000000FFFFFFFFFFFFFFFFFFFFFFFFFFFFFFFFFFFFFFFFFFFFFFFF0000000000000000
310
00000000000000000000000000000000000000000000000000000000FFFFFFFFFFFFFFFFFFFFFFFFFFFFFFFFFFFFFFFFFFFFFFFFFFFFFFFFFFFFFFFFFF00000000000000000000000000000000000000000000000000000000000000000000000000000000000000000000000000BFFF000000FFFFFF000000000000000000
310
000000000000000000000000000000000000000000000000000000000000000000000000000000000000000000000000000000000000000000000000000000000000000000000000000000000000000000000000000000000000000000000000000000000000000000000000FFFFFF00000000BFFF00000000000000000000
310
00000000000000000000000000000000000000000000000000000000000000000000000000000000000000000000000000000000000000000000000000000000000000000000000000000000000000000000000000000000000000000000000000000000000000000000000000000000000000000000000000000000000000
310
0000000000000000000000000000000000000000000000000000000000000000000000000000000000000000000000000000000000000000000000000000000000000000000000000000000000000000000000000000000000000000000000000000000000000000000000000000000000BFFF000000FFFFFF000000000000
310
000000000000000000000000000000000000000000000000000000000000000000000000000000000000000000000000000000000000000000000000000000000000000000000000000000000000000000000000000000000000000000000000000000000000000000000000000000FFFFFF00000000BFFF00000000000000
310
00000000000000000000000000000000000000000000000000000000000000000000000000000000000000000000000000000000000000000000000000000000000000000000000000000000000000000000000000000000000000000000000000000000000000000000000000000000000000000000000000000000000000
310
0000000000000000000000000000000000000000000000000000000000000000000000000000000000000000000000000000000000000000000000000000000000000000000000000000000000000000000000000000000000000000000000000000000000000000000000000000000000000000BFFF000000FFFFFF000000
310
000000000000000000000000000000000000000000000000000000000000000000000000000000000000000000000000000000000000000000000000000000000000000000000000000000000000000000000000000000000000000000000000000000000000000000000000000000000000FFFFFF00000000BFFF00000000
310
00000000000000000000000000000000000000000000000000000000000000000000000000000000000000000000000000000000000000000000000000000000000000000000000000000000000000000000000000000000000000000000000000000000000000000000000000000000000000000000000000000000000000
310
0000000000000000000000000000000000000000000000000000000000000000000000000000000000000000000000000000000000000000000000000000000000000000000000000000000000000000000000000000000000000000000000000000000000000000000000000000000000000000000000BFFF000000FFFFFF
310
000000000000000000000000000000000000000000000000000000000000000000000000000000000000000000000000000000000000000000000000000000000000000000000000000000000000000000000000000000000000000000000000000000000000000000000000000000000000000000FFFFFF00000000BFFF00
310
00000000000000000000000000000000000000000000000000000000000000000000000000000000000000000000000000000000000000000000000000000000000000000000000000000000000000000000000000000000000000000000000000000000000000000000000000000000000000000000000000000000000000
310
0000000000000000000000000000000000000000000000000000000000000000000000000000000000000000000000000000000000000000000000000000000000000000000000000000000000000000000000000000000000000000000000000000000000000000000000000000000000000000000000000000BFFF000000
310
FFFFFF000000000000000000000000000000000000000000000000000000000000000000000000000000000000000000000000000000000000000000000000000000000000000000000000000000000000000000000000000000000000000000000000000000000000000000000000000000000000000000FFFFFF00000000
310
BFFF0000000000000000000000000000000000000000000000000000000000000000000000000000000000000000000000000000000000000000000000000000000000000000000000000000000000000000000000000000000000000000000000000000000000000000000000000000000000000000000000000000000000
310
0000000000000000000000000000000000000000000000000000000000000000000000000000000000000000000000000000000000000000000000000000000000000000000000000000000000000000000000000000000000000000000000000000000000000000000000000000000000000000000000000000000000BFFF
310
000000FFFFFF000000000000000000000000000000000000000000000000000000000000000000000000000000000000000000000000000000000000000000000000000000000000000000000000000000000000000000000000000000000000000000000000000000000000000000000000000000000000000000FFFFFF00
310
000000BFFF0000000000000000000000000000000000000000000000000000000000000000000000000000000000000000000000000000000000000000000000000000000000000000000000000000000000000000000000000000000000000000000000000000000000000000000000000000000000000000000000000000
310
00000000000000000000000000000000000000000000000000000000000000000000000000000000000000000000000000000000000000000000000000000000000000000000000000000000000000000000000000000000000000000000000000000000000000000000000000000000000000000000000000000000000000
310
00BFFF000000FFFFFF000000000000000000000000000000000000000000000000000000000000000000000000000000000000000000000000000000000000000000000000000000000000000000000000000000000000000000000000000000000000000000000000000000000000000000000000000000000000000000FF
310
FFFF00000000BFFF0000000000000000000000000000000000000000000000000000000000000000000000000000000000000000000000000000000000000000000000000000000000000000000000000000000000000000000000000000000000000000000000000000000000000000000000000000000000000000000000
310
00000000000000000000000000000000000000000000000000000000000000000000000000000000000000000000000000000000000000000000000000000000000000000000000000000000000000000000000000000000000000000000000000000000000000000000000000000000000000000000000000000000000000
310
00000000BFFF000000FFFFFF00000000000000000000000000000000000000000000000000000000000000000000000000000000000000000000000000000000000000000000000000000000000000000000000000000000000000000000000000000000000000000000000000000000000000000000000000000000000000
310
0000FFFFFF00000000BFFF0000000000000000000000000000000000000000000000000000000000000000000000000000000000000000000000000000000000000000000000000000000000000000000000000000000000000000000000000000000000000000000000000000000000000000000000000000000000000000
310
00000000000000000000000000000000000000000000000000000000000000000000000000000000000000000000000000000000000000000000000000000000000000000000000000000000000000000000000000000000000000000000000000000000000000000000000000000000000000000000000000000000000000
310
00000000000000BFFF000000FFFFFF00000000000000000000000000000000000000000000000000000000000000000000000000000000000000000000000000000000000000000000000000000000000000000000000000000000000000000000000000000000000000000000000000000000000000000000000000000000
310
0000000000FFFFFF00000000BFFF0000000000000000000000000000000000000000000000000000000000000000000000000000000000000000000000000000000000000000000000000000000000000000000000000000000000000000000000000000000000000000000000000000000000000000000000000000000000
310
00000000000000000000000000000000000000000000000000000000000000000000000000000000000000000000000000000000000000000000000000000000000000000000000000000000000000000000000000000000000000000000000000000000000000000000000000000000000000000000000000000000000000
310
00000000000000000000BFFF000000FFFFFF00000000000000000000000000000000000000000000000000000000000000000000000000000000000000000000000000000000000000000000000000000000000000000000000000000000000000000000000000000000000000000000000000000000000000000000000000
310
0000000000000000FFFFFF00000000BFFF0000000000000000000000000000000000000000000000000000000000000000000000000000000000000000000000000000000000000000000000000000000000000000000000000000000000000000000000000000000000000000000000000000000000000000000000000000
310
00000000000000000000000000000000000000000000000000000000000000000000000000000000000000000000000000000000000000000000000000000000000000000000000000000000000000000000000000000000000000000000000000000000000000000000000000000000000000000000000000000000000000
310
00000000000000000000000000BFFF000000FFFFFF00000000000000000000000000000000000000000000000000000000000000000000000000000000000000000000000000000000000000000000000000000000000000000000000000000000000000000000000000000000000000000000000000000000000000000000
310
0000000000000000000000FFFFFF00000000BFFF0000000000000000000000000000000000000000000000000000000000000000000000000000000000000000000000000000000000000000000000000000000000000000000000000000000000000000000000000000000000000000000000000000000000000000000000
310
00000000000000000000000000000000000000000000000000000000000000000000000000000000000000000000000000000000000000000000000000000000000000000000000000000000000000000000000000000000000000000000000000000000000000000000000000000000000000000000000000000000000000
310
00000000000000000000000000000000BFFF000000FFFFFF00000000000000000000000000000000000000000000000000000000000000000000000000000000000000000000000000000000000000000000000000000000000000000000000000000000000000000000000000000000000000000000000000000000000000
310
0000000000000000000000000000FFFFFF00000000BFFF0000000000000000000000000000000000000000000000000000000000000000000000000000000000000000000000000000000000000000000000000000000000000000000000000000000000000000000000000000000000000000000000000000000000000000
310
00000000000000000000000000000000000000000000000000000000000000000000000000000000000000000000000000000000000000000000000000000000000000000000000000000000000000000000000000000000000000000000000000000000000000000000000000000000000000000000000000000000000000
310
00000000000000000000000000000000000000BFFF000000FFFFFF00000000000000000000000000000000000000000000000000000000000000000000000000000000000000000000000000000000000000000000000000000000000000000000000000000000000000000000000000000000000000000000000000000000
310
0000000000000000000000000000000000FFFFFF00000000BFFF0000000000000000000000000000000000000000000000000000000000000000000000000000000000000000000000000000000000000000000000000000000000000000000000000000000000000000000000000000000000000000000000000000000000
310
00000000000000000000000000000000000000000000000000000000000000000000000000000000000000000000000000000000000000000000000000000000000000000000000000000000000000000000000000000000000000000000000000000000000000000000000000000000000000000000000000000000000000
310
00000000000000000000000000000000000000000000BFFF000000FFFFFF00000000000000000000000000000000000000000000000000000000000000000000000000000000000000000000000000000000000000000000000000000000000000000000000000000000000000000000000000000000000000000000000000
310
0000000000000000000000000000000000000000FFFFFF00000000BFFF0000000000000000000000000000000000000000000000000000000000000000000000000000000000000000000000000000000000000000000000000000000000000000000000000000000000000000000000000000000000000000000000000000
310
00000000000000000000000000000000000000000000000000000000000000000000000000000000000000000000000000000000000000000000000000000000000000000000000000000000000000000000000000000000000000000000000000000000000000000000000000000000000000000000000000000000000000
310
00000000000000000000000000000000000000000000000000BFFF000000FFFFFF00000000000000000000000000000000000000000000000000000000000000000000000000000000000000000000000000000000000000000000000000000000000000000000000000000000000000000000000000000000000000000000
310
0000000000000000000000000000000000000000000000FFFFFF00000000BFFF0000000000000000000000000000000000000000000000000000000000000000000000000000000000000000000000000000000000000000000000000000000000000000000000000000000000000000000000000000000000000000000000
310
00000000000000000000000000000000000000000000000000000000000000000000000000000000000000000000000000000000000000000000000000000000000000000000000000000000000000000000000000000000000000000000000000000000000000000000000000000000000000000000000000000000000000
310
00000000000000000000000000000000000000000000000000000000BFFF000000FFFFFF00000000000000000000000000000000000000000000000000000000000000000000000000000000000000000000000000000000000000000000000000000000000000000000000000000000000000000000000000000000000000
310
0000000000000000000000000000000000000000000000000000FFFFFF00000000BFFF00BFFF00BFFF00BFFF00BFFF00BFFF00BFFF00BFFF00BFFF00BFFF00BFFF00BFFF00BFFF00BFFF00BFFF00BFFF00BFFF00BFFF00BFFF00BFFF00BFFF00BFFF00BFFF00BFFF00BFFF00BFFF00BFFF00BFFF00BFFF00BFFF00BFFF00BF
310
FF00BFFF00BFFF00BFFF00BFFF00BFFF00BFFF00BFFF00BFFF00BFFF00BFFF00BFFF00BFFF00BFFF00BFFF00BFFF00BFFF00BFFF00BFFF00BFFF00BFFF00BFFF00BFFF00BFFF00BFFF00BFFF00BFFF00BFFF00BFFF00BFFF00BFFF00BFFF00BFFF00BFFF00BFFF00BFFF00BFFF00BFFF00BFFF00BFFF00BFFF00BFFF00BFFF
310
00BFFF00BFFF00BFFF00BFFF00BFFF00BFFF00BFFF00BFFF00BFFF00BFFF00BFFF000000FFFFFF00000000000000000000000000000000000000000000000000000000000000000000000000000000000000000000000000000000000000000000000000000000000000000000000000000000000000000000000000000000
310
0000000000000000000000000000000000000000000000000000000000FFFFFF0000000000000000000000000000000000000000000000000000000000000000000000000000000000000000000000000000000000000000000000000000000000000000000000000000000000000000000000000000000000000000000000
310
00000000000000000000000000000000000000000000000000000000000000000000000000000000000000000000000000000000000000000000000000000000000000000000000000000000000000000000000000000000000000000000000000000000000000000000000000000000000000000000000000000000000000
310
000000000000000000000000000000000000000000000000000000000000000000000000000000FFFFFF00000000000000000000000000000000000000000000000000000000000000000000000000000000000000000000000000000000000000000000000000000000000000000000000000000000000000000000000000
310
0000000000000000000000000000000000000000000000000000000000000000FFFFFFFFFFFFFFFFFFFFFFFFFFFFFFFFFFFFFFFFFFFFFFFFFFFFFFFFFFFFFFFFFFFFFFFFFFFFFFFFFFFFFFFFFFFFFFFFFFFFFFFFFFFFFFFFFFFFFFFFFFFFFFFFFFFFFFFFFFFFFFFFFFFFFFFFFFFFFFFFFFFFFFFFFFFFFFFFFFFFFFFFFFFFFF
310
FFFFFFFFFFFFFFFFFFFFFFFFFFFFFFFFFFFFFFFFFFFFFFFFFFFFFFFFFFFFFFFFFFFFFFFFFFFFFFFFFFFFFFFFFFFFFFFFFFFFFFFFFFFFFFFFFFFFFFFFFFFFFFFFFFFFFFFFFFFFFFFFFFFFFFFFFFFFFFFFFFFFFFFFFFFFFFFFFFFFFFFFFFFFFFFFFFFFFFFFFFFFFFFFFFFFFFFFFFFFFFFFFFFFFFFFFFFFFFFFFFFFFFFFFFFFFF
310
FFFFFFFFFFFFFFFFFFFFFFFFFFFFFFFFFFFFFFFFFFFFFFFFFFFFFFFFFFFFFFFFFFFFFFFFFFFFFFFFFFFFFFFFFF00000000000000000000000000000000000000000000000000000000000000000000000000000000000000000000000000000000000000000000000000000000000000000000000000000000000000000000
310
00000000000000000000000000000000000000000000000000000000000000000000000000000000000000000000000000000000000000000000000000000000000000000000000000000000000000000000000000000000000000000000000000000000000000000000000000000000000000000000000000000000000000
310
00000000000000000000000000000000000000000000000000000000000000000000000000000000000000000000000000000000000000000000000000000000000000000000000000000000000000000000000000000000000000000000000000000000000000000000000000000000000000000000000000000000000000
310
000000000000000000000000000000000000000000000000000000000000000000000000000000000000000000000000000000000000000000000000000000000000000000000000000000000000000000000000000000000000000000000000000000000000000000
  0
ENDSEC
  0
EOF
