  0
SECTION
  2
HEADER
  9
$ACADVER
  1
AC1024
  9
$ACADMAINTVER
 70
     6
  9
$DWGCODEPAGE
  3
DOS932
  9
$LASTSAVEDBY
  1
HRC747U
  9
$INSBASE
 10
0.0
 20
0.0
 30
0.0
  9
$EXTMIN
 10
0.0
 20
0.0
 30
0.0
  9
$EXTMAX
 10
1680.0
 20
1188.0
 30
0.0
  9
$LIMMIN
 10
0.0
 20
0.0
  9
$LIMMAX
 10
420.0
 20
297.0
  9
$ORTHOMODE
 70
     0
  9
$REGENMODE
 70
     1
  9
$FILLMODE
 70
     1
  9
$QTEXTMODE
 70
     0
  9
$MIRRTEXT
 70
     1
  9
$LTSCALE
 40
10.0
  9
$ATTMODE
 70
     1
  9
$TEXTSIZE
 40
0.0
  9
$TRACEWID
 40
0.05
  9
$TEXTSTYLE
  7
STANDARD
  9
$CLAYER
  8
0
  9
$CELTYPE
  6
BYLAYER
  9
$CECOLOR
 62
   256
  9
$CELTSCALE
 40
1.0
  9
$DISPSILH
 70
     0
  9
$DIMSCALE
 40
1.0
  9
$DIMASZ
 40
0.18
  9
$DIMEXO
 40
0.0625
  9
$DIMDLI
 40
0.38
  9
$DIMRND
 40
0.0
  9
$DIMDLE
 40
0.0
  9
$DIMEXE
 40
0.18
  9
$DIMTP
 40
0.0
  9
$DIMTM
 40
0.0
  9
$DIMTXT
 40
0.18
  9
$DIMCEN
 40
0.09
  9
$DIMTSZ
 40
0.0
  9
$DIMTOL
 70
     0
  9
$DIMLIM
 70
     0
  9
$DIMTIH
 70
     1
  9
$DIMTOH
 70
     1
  9
$DIMSE1
 70
     0
  9
$DIMSE2
 70
     0
  9
$DIMTAD
 70
     0
  9
$DIMZIN
 70
     0
  9
$DIMBLK
  1

  9
$DIMASO
 70
     1
  9
$DIMSHO
 70
     1
  9
$DIMPOST
  1

  9
$DIMAPOST
  1

  9
$DIMALT
 70
     0
  9
$DIMALTD
 70
     2
  9
$DIMALTF
 40
25.4
  9
$DIMLFAC
 40
1.0
  9
$DIMTOFL
 70
     0
  9
$DIMTVP
 40
0.0
  9
$DIMTIX
 70
     0
  9
$DIMSOXD
 70
     0
  9
$DIMSAH
 70
     0
  9
$DIMBLK1
  1

  9
$DIMBLK2
  1

  9
$DIMSTYLE
  2
STANDARD
  9
$DIMCLRD
 70
     0
  9
$DIMCLRE
 70
     0
  9
$DIMCLRT
 70
     0
  9
$DIMTFAC
 40
1.0
  9
$DIMGAP
 40
0.09
  9
$DIMJUST
 70
     0
  9
$DIMSD1
 70
     0
  9
$DIMSD2
 70
     0
  9
$DIMTOLJ
 70
     1
  9
$DIMTZIN
 70
     0
  9
$DIMALTZ
 70
     0
  9
$DIMALTTZ
 70
     0
  9
$DIMUPT
 70
     0
  9
$DIMDEC
 70
     4
  9
$DIMTDEC
 70
     4
  9
$DIMALTU
 70
     2
  9
$DIMALTTD
 70
     2
  9
$DIMTXSTY
  7
STANDARD
  9
$DIMAUNIT
 70
     0
  9
$DIMADEC
 70
     0
  9
$DIMALTRND
 40
0.0
  9
$DIMAZIN
 70
     0
  9
$DIMDSEP
 70
    46
  9
$DIMATFIT
 70
     3
  9
$DIMFRAC
 70
     0
  9
$DIMLDRBLK
  1

  9
$DIMLUNIT
 70
     2
  9
$DIMLWD
 70
    -2
  9
$DIMLWE
 70
    -2
  9
$DIMTMOVE
 70
     2
  9
$DIMFXL
 40
1.0
  9
$DIMFXLON
 70
     0
  9
$DIMJOGANG
 40
0.785398163397
  9
$DIMTFILL
 70
     0
  9
$DIMTFILLCLR
 70
     0
  9
$DIMARCSYM
 70
     0
  9
$DIMLTYPE
  6

  9
$DIMLTEX1
  6

  9
$DIMLTEX2
  6

  9
$DIMTXTDIRECTION
 70
     0
  9
$LUNITS
 70
     2
  9
$LUPREC
 70
     8
  9
$SKETCHINC
 40
0.1
  9
$FILLETRAD
 40
0.0
  9
$AUNITS
 70
     0
  9
$AUPREC
 70
     0
  9
$MENU
  1
acad
  9
$ELEVATION
 40
0.0
  9
$PELEVATION
 40
0.0
  9
$THICKNESS
 40
0.0
  9
$LIMCHECK
 70
     0
  9
$CHAMFERA
 40
0.0
  9
$CHAMFERB
 40
0.0
  9
$CHAMFERC
 40
0.0
  9
$CHAMFERD
 40
0.0
  9
$SKPOLY
 70
     0
  9
$TDCREATE
 40
2455154.62412037
  9
$TDUCREATE
 40
2455154.24912037
  9
$TDUPDATE
 40
2460087.591499618
  9
$TDUUPDATE
 40
2460087.216499618
  9
$TDINDWG
 40
0.0057467361
  9
$TDUSRTIMER
 40
0.0057467361
  9
$USRTIMER
 70
     1
  9
$ANGBASE
 50
0.0
  9
$ANGDIR
 70
     0
  9
$PDMODE
 70
     0
  9
$PDSIZE
 40
0.0
  9
$PLINEWID
 40
0.0
  9
$SPLFRAME
 70
     0
  9
$SPLINETYPE
 70
     6
  9
$SPLINESEGS
 70
     8
  9
$HANDSEED
  5
1C8E
  9
$SURFTAB1
 70
     6
  9
$SURFTAB2
 70
     6
  9
$SURFTYPE
 70
     6
  9
$SURFU
 70
     6
  9
$SURFV
 70
     6
  9
$UCSBASE
  2

  9
$UCSNAME
  2

  9
$UCSORG
 10
0.0
 20
0.0
 30
0.0
  9
$UCSXDIR
 10
1.0
 20
0.0
 30
0.0
  9
$UCSYDIR
 10
0.0
 20
1.0
 30
0.0
  9
$UCSORTHOREF
  2

  9
$UCSORTHOVIEW
 70
     0
  9
$UCSORGTOP
 10
0.0
 20
0.0
 30
0.0
  9
$UCSORGBOTTOM
 10
0.0
 20
0.0
 30
0.0
  9
$UCSORGLEFT
 10
0.0
 20
0.0
 30
0.0
  9
$UCSORGRIGHT
 10
0.0
 20
0.0
 30
0.0
  9
$UCSORGFRONT
 10
0.0
 20
0.0
 30
0.0
  9
$UCSORGBACK
 10
0.0
 20
0.0
 30
0.0
  9
$PUCSBASE
  2

  9
$PUCSNAME
  2

  9
$PUCSORG
 10
0.0
 20
0.0
 30
0.0
  9
$PUCSXDIR
 10
1.0
 20
0.0
 30
0.0
  9
$PUCSYDIR
 10
0.0
 20
1.0
 30
0.0
  9
$PUCSORTHOREF
  2

  9
$PUCSORTHOVIEW
 70
     0
  9
$PUCSORGTOP
 10
0.0
 20
0.0
 30
0.0
  9
$PUCSORGBOTTOM
 10
0.0
 20
0.0
 30
0.0
  9
$PUCSORGLEFT
 10
0.0
 20
0.0
 30
0.0
  9
$PUCSORGRIGHT
 10
0.0
 20
0.0
 30
0.0
  9
$PUCSORGFRONT
 10
0.0
 20
0.0
 30
0.0
  9
$PUCSORGBACK
 10
0.0
 20
0.0
 30
0.0
  9
$USERI1
 70
     0
  9
$USERI2
 70
     0
  9
$USERI3
 70
     0
  9
$USERI4
 70
     0
  9
$USERI5
 70
     0
  9
$USERR1
 40
0.0
  9
$USERR2
 40
0.0
  9
$USERR3
 40
0.0
  9
$USERR4
 40
0.0
  9
$USERR5
 40
0.0
  9
$WORLDVIEW
 70
     1
  9
$SHADEDGE
 70
     3
  9
$SHADEDIF
 70
    70
  9
$TILEMODE
 70
     1
  9
$MAXACTVP
 70
    16
  9
$PINSBASE
 10
0.0
 20
0.0
 30
0.0
  9
$PLIMCHECK
 70
     0
  9
$PEXTMIN
 10
1.000000000000E+20
 20
1.000000000000E+20
 30
1.000000000000E+20
  9
$PEXTMAX
 10
-1.000000000000E+20
 20
-1.000000000000E+20
 30
-1.000000000000E+20
  9
$PLIMMIN
 10
0.0
 20
0.0
  9
$PLIMMAX
 10
12.0
 20
9.0
  9
$UNITMODE
 70
     0
  9
$VISRETAIN
 70
     0
  9
$PLINEGEN
 70
     1
  9
$PSLTSCALE
 70
     0
  9
$TREEDEPTH
 70
  3020
  9
$CMLSTYLE
  2
STANDARD
  9
$CMLJUST
 70
     0
  9
$CMLSCALE
 40
1.0
  9
$PROXYGRAPHICS
 70
     0
  9
$MEASUREMENT
 70
     0
  9
$CELWEIGHT
370
    -1
  9
$ENDCAPS
280
     0
  9
$JOINSTYLE
280
     0
  9
$LWDISPLAY
290
     0
  9
$INSUNITS
 70
     0
  9
$HYPERLINKBASE
  1

  9
$STYLESHEET
  1

  9
$XEDIT
290
     1
  9
$CEPSNTYPE
380
     0
  9
$PSTYLEMODE
290
     1
  9
$FINGERPRINTGUID
  2
{f8f10254-f7f4-428e-8301-585654336388}
  9
$VERSIONGUID
  2
{FAEB1C32-E019-11D5-929B-00C0DF256EC4}
  9
$EXTNAMES
290
     1
  9
$PSVPSCALE
 40
0.0
  9
$OLESTARTUP
290
     0
  9
$SORTENTS
280
   127
  9
$INDEXCTL
280
     0
  9
$HIDETEXT
280
     1
  9
$XCLIPFRAME
280
     2
  9
$HALOGAP
280
     0
  9
$OBSCOLOR
 70
   257
  9
$OBSLTYPE
280
     0
  9
$INTERSECTIONDISPLAY
280
     0
  9
$INTERSECTIONCOLOR
 70
   257
  9
$DIMASSOC
280
     2
  9
$PROJECTNAME
  1

  9
$CAMERADISPLAY
290
     0
  9
$LENSLENGTH
 40
50.0
  9
$CAMERAHEIGHT
 40
0.0
  9
$STEPSPERSEC
 40
24.0
  9
$STEPSIZE
 40
2.0
  9
$3DDWFPREC
 40
2.0
  9
$PSOLWIDTH
 40
0.25
  9
$PSOLHEIGHT
 40
4.0
  9
$LOFTANG1
 40
1.570796326795
  9
$LOFTANG2
 40
1.570796326795
  9
$LOFTMAG1
 40
0.0
  9
$LOFTMAG2
 40
0.0
  9
$LOFTPARAM
 70
     7
  9
$LOFTNORMALS
280
     1
  9
$LATITUDE
 40
37.795
  9
$LONGITUDE
 40
-122.394
  9
$NORTHDIRECTION
 40
0.0
  9
$TIMEZONE
 70
 -8000
  9
$LIGHTGLYPHDISPLAY
280
     1
  9
$TILEMODELIGHTSYNCH
280
     1
  9
$SOLIDHIST
280
     0
  9
$SHOWHIST
280
     1
  9
$DWFFRAME
280
     2
  9
$DGNFRAME
280
     2
  9
$REALWORLDSCALE
290
     1
  9
$INTERFERECOLOR
 62
   256
  9
$CSHADOW
280
     0
  9
$SHADOWPLANELOCATION
 40
0.0
  0
ENDSEC
  0
SECTION
  2
CLASSES
  0
CLASS
  1
LWPOLYLINE
  2
AcDbPolyline
  3
ObjectDBX Classes
 90
        0
 91
        1
280
     0
281
     1
  0
CLASS
  1
IMAGE
  2
AcDbRasterImage
  3
ISM
 90
      127
 91
        5
280
     0
281
     1
  0
CLASS
  1
OLE2FRAME
  2
AcDbOle2Frame
  3
ObjectDBX Classes
 90
        0
 91
        1
280
     0
281
     1
  0
CLASS
  1
HATCH
  2
AcDbHatch
  3
ObjectDBX Classes
 90
        0
 91
        1
280
     0
281
     1
  0
CLASS
  1
DICTIONARYVAR
  2
AcDbDictionaryVar
  3
ObjectDBX Classes
 90
        0
 91
        3
280
     0
281
     0
  0
CLASS
  1
RASTERVARIABLES
  2
AcDbRasterVariables
  3
ISM
 90
        0
 91
        3
280
     0
281
     0
  0
CLASS
  1
IMAGEDEF
  2
AcDbRasterImageDef
  3
ISM
 90
        0
 91
        3
280
     0
281
     0
  0
CLASS
  1
IMAGEDEF_REACTOR
  2
AcDbRasterImageDefReactor
  3
ISM
 90
        1
 91
        3
280
     0
281
     0
  0
CLASS
  1
IDBUFFER
  2
AcDbIdBuffer
  3
ObjectDBX Classes
 90
        0
 91
        3
280
     0
281
     0
  0
CLASS
  1
SPATIAL_FILTER
  2
AcDbSpatialFilter
  3
ObjectDBX Classes
 90
        0
 91
        3
280
     0
281
     0
  0
CLASS
  1
XRECORD
  2
AcDbXrecord
  3
ObjectDBX Classes
 90
        0
 91
        1
280
     0
281
     0
  0
CLASS
  1
SORTENTSTABLE
  2
AcDbSortentsTable
  3
ObjectDBX Classes
 90
        0
 91
        3
280
     0
281
     0
  0
CLASS
  1
LAYER_INDEX
  2
AcDbLayerIndex
  3
ObjectDBX Classes
 90
        0
 91
        3
280
     0
281
     0
  0
CLASS
  1
SPATIAL_INDEX
  2
AcDbSpatialIndex
  3
AutoCAD 2000
 90
        0
 91
        3
280
     0
281
     0
  0
CLASS
  1
OBJECT_PTR
  2
CAseDLPNTableRecord
  3
ASE-LPNTableRecord
 90
        1
 91
        3
280
     0
281
     0
  0
CLASS
  1
ACDBDICTIONARYWDFLT
  2
AcDbDictionaryWithDefault
  3
ObjectDBX Classes
 90
        0
 91
        3
280
     0
281
     0
  0
CLASS
  1
SCALE
  2
AcDbScale
  3
ObjectDBX Classes
 90
     1153
 91
        3
280
     0
281
     0
  0
CLASS
  1
VISUALSTYLE
  2
AcDbVisualStyle
  3
ObjectDBX Classes
 90
     4095
 91
        3
280
     0
281
     0
  0
CLASS
  1
MATERIAL
  2
AcDbMaterial
  3
ObjectDBX Classes
 90
     1153
 91
        3
280
     0
281
     0
  0
CLASS
  1
TABLESTYLE
  2
AcDbTableStyle
  3
ObjectDBX Classes
 90
     4095
 91
        3
280
     0
281
     0
  0
CLASS
  1
MLEADERSTYLE
  2
AcDbMLeaderStyle
  3
ACDB_MLEADERSTYLE_CLASS
 90
     4095
 91
        3
280
     0
281
     0
  0
CLASS
  1
SUN
  2
AcDbSun
  3
SCENEOE
 90
     1153
 91
        3
280
     0
281
     0
  0
CLASS
  1
CELLSTYLEMAP
  2
AcDbCellStyleMap
  3
ObjectDBX Classes
 90
     1152
 91
        3
280
     0
281
     0
  0
CLASS
  1
ACAD_TABLE
  2
AcDbTable
  3
ObjectDBX Classes
 90
     1025
 91
        3
280
     0
281
     1
  0
CLASS
  1
TABLECONTENT
  2
AcDbTableContent
  3
ObjectDBX Classes
 90
     1152
 91
        4
280
     0
281
     0
  0
CLASS
  1
TABLEGEOMETRY
  2
AcDbTableGeometry
  3
ObjectDBX Classes
 90
     1152
 91
        3
280
     0
281
     0
  0
CLASS
  1
FIELDLIST
  2
AcDbFieldList
  3
ObjectDBX Classes
 90
     1152
 91
        3
280
     0
281
     0
  0
CLASS
  1
DATATABLE
  2
AcDbDataTable
  3
ObjectDBX Classes
 90
        0
 91
        3
280
     0
281
     0
  0
ENDSEC
  0
SECTION
  2
TABLES
  0
TABLE
  2
VPORT
  5
7
330
0
100
AcDbSymbolTable
 70
     1
  0
VPORT
  5
15
330
7
100
AcDbSymbolTableRecord
100
AcDbViewportTableRecord
  2
*ACTIVE
 70
     0
 10
0.0
 20
0.0
 11
1.0
 21
1.0
 12
840.0
 22
594.0
 13
0.0
 23
0.0
 14
1.0
 24
1.0
 15
0.0
 25
0.0
 16
0.0
 26
0.0
 36
1.0
 17
0.0
 27
0.0
 37
0.0
 40
1211.76
 41
1.998180163785
 42
50.0
 43
0.0
 44
0.0
 50
0.0
 51
0.0
 71
    16
 72
   100
 73
     1
 74
     1
 75
     0
 76
     0
 77
     0
 78
     0
281
     0
 65
     1
110
0.0
120
0.0
130
0.0
111
1.0
121
0.0
131
0.0
112
0.0
122
1.0
132
0.0
 79
     0
146
0.0
348
15D0
 60
     3
 61
     5
292
     0
282
     1
141
0.0
142
0.0
 63
   250
421
  3355443
361
15ED
  0
ENDTAB
  0
TABLE
  2
LTYPE
  5
4
330
0
100
AcDbSymbolTable
 70
     4
  0
LTYPE
  5
11
330
4
100
AcDbSymbolTableRecord
100
AcDbLinetypeTableRecord
  2
BYBLOCK
 70
     0
  3

 72
    65
 73
     0
 40
0.0
  0
LTYPE
  5
12
330
4
100
AcDbSymbolTableRecord
100
AcDbLinetypeTableRecord
  2
BYLAYER
 70
     0
  3

 72
    65
 73
     0
 40
0.0
  0
LTYPE
  5
13
330
4
100
AcDbSymbolTableRecord
100
AcDbLinetypeTableRecord
  2
CONTINUOUS
 70
     0
  3
Solid line
 72
    65
 73
     0
 40
0.0
  0
LTYPE
  5
103D
330
4
100
AcDbSymbolTableRecord
100
AcDbLinetypeTableRecord
  2
DASHED
 70
     0
  3
__ __ __ __ __ __ __ __ __ __ __ __ _
 72
    65
 73
     2
 40
0.75
 49
0.5
 74
     0
 49
-0.25
 74
     0
  0
LTYPE
  5
144A
330
4
100
AcDbSymbolTableRecord
100
AcDbLinetypeTableRecord
  2
CENTER
 70
     0
  3
____ _ ____ _ ____ _ ____ _ ____ _ __
 72
    65
 73
     4
 40
2.0
 49
1.25
 74
     0
 49
-0.25
 74
     0
 49
0.25
 74
     0
 49
-0.25
 74
     0
  0
LTYPE
  5
1642
330
4
100
AcDbSymbolTableRecord
100
AcDbLinetypeTableRecord
  2
HIDDEN
 70
     0
  3
__ __ __ __ __ __ __ __ __ __ __ __ __ __ __ __
 72
    65
 73
     2
 40
0.375
 49
0.25
 74
     0
 49
-0.125
 74
     0
  0
ENDTAB
  0
TABLE
  2
LAYER
  5
2
102
{ACAD_XDICTIONARY
360
1920
102
}
330
0
100
AcDbSymbolTable
 70
    18
  0
LAYER
  5
14
330
2
100
AcDbSymbolTableRecord
100
AcDbLayerTableRecord
  2
0
 70
     0
 62
     7
  6
CONTINUOUS
370
    -3
390
15A5
347
15E7
  0
LAYER
  5
163D
102
{ACAD_XDICTIONARY
360
163E
102
}
330
2
100
AcDbSymbolTableRecord
100
AcDbLayerTableRecord
  2
寸法線
 70
     0
 62
     7
  6
CONTINUOUS
370
     9
390
15A5
347
15E7
  0
LAYER
  5
1641
330
2
100
AcDbSymbolTableRecord
100
AcDbLayerTableRecord
  2
仮想線
 70
     0
 62
    44
  6
HIDDEN
290
     0
370
     5
390
15A5
347
15E7
1001
AcAecLayerStandard
1000

1000

1001
AcCmTransparency
1071
        0
  0
LAYER
  5
1645
330
2
100
AcDbSymbolTableRecord
100
AcDbLayerTableRecord
  2
表題欄
 70
     0
 62
     7
  6
CONTINUOUS
370
     9
390
15A5
347
15E7
1001
AcAecLayerStandard
1000

1000

1001
AcCmTransparency
1071
        0
  0
LAYER
  5
1646
330
2
100
AcDbSymbolTableRecord
100
AcDbLayerTableRecord
  2
輪郭線
 70
     0
 62
    40
  6
CONTINUOUS
370
    15
390
15A5
347
15E7
1001
AcAecLayerStandard
1000

1000

1001
AcCmTransparency
1071
        0
  0
LAYER
  5
1647
330
2
100
AcDbSymbolTableRecord
100
AcDbLayerTableRecord
  2
文字
 70
     0
 62
     7
  6
CONTINUOUS
370
     9
390
15A5
347
15E7
1001
AcAecLayerStandard
1000

1000

1001
AcCmTransparency
1071
        0
  0
LAYER
  5
1648
330
2
100
AcDbSymbolTableRecord
100
AcDbLayerTableRecord
  2
構築線
 70
     0
 62
     1
  6
CONTINUOUS
290
     0
370
     0
390
15A5
347
15E7
1001
AcAecLayerStandard
1000

1000

1001
AcCmTransparency
1071
        0
  0
LAYER
  5
1649
330
2
100
AcDbSymbolTableRecord
100
AcDbLayerTableRecord
  2
図面枠
 70
     0
 62
     7
  6
CONTINUOUS
290
     0
370
     9
390
15A5
347
15E7
1001
AcAecLayerStandard
1000

1000

1001
AcCmTransparency
1071
        0
  0
LAYER
  5
164A
102
{ACAD_XDICTIONARY
360
164B
102
}
330
2
100
AcDbSymbolTableRecord
100
AcDbLayerTableRecord
  2
部材(積層鋼板)
 70
     0
 62
     7
  6
CONTINUOUS
370
    15
390
15A5
347
15E7
1001
AcAecLayerStandard
1000

1000

  0
LAYER
  5
164D
330
2
100
AcDbSymbolTableRecord
100
AcDbLayerTableRecord
  2
中心線
 70
     0
 62
    44
  6
CENTER
370
     5
390
15A5
347
15E7
1001
AcAecLayerStandard
1000

1000

1001
AcCmTransparency
1071
        0
  0
LAYER
  5
164F
330
2
100
AcDbSymbolTableRecord
100
AcDbLayerTableRecord
  2
ブチルﾃｰﾌﾟ
 70
     0
 62
     7
  6
CONTINUOUS
370
     9
390
15A5
347
15E7
1001
AcAecLayerStandard
1000

1000

1001
AcCmTransparency
1071
        0
  0
LAYER
  5
1650
330
2
100
AcDbSymbolTableRecord
100
AcDbLayerTableRecord
  2
実線
 70
     0
 62
     7
  6
CONTINUOUS
370
     9
390
15A5
347
15E7
1001
AcAecLayerStandard
1000

1000

1001
AcCmTransparency
1071
        0
  0
LAYER
  5
1651
330
2
100
AcDbSymbolTableRecord
100
AcDbLayerTableRecord
  2
IBｼｰﾄ
 70
     0
 62
     7
  6
CONTINUOUS
370
    18
390
15A5
347
15E7
1001
AcAecLayerStandard
1000

1000

1001
AcCmTransparency
1071
        0
  0
LAYER
  5
1652
330
2
100
AcDbSymbolTableRecord
100
AcDbLayerTableRecord
  2
IBリキッド
 70
     0
 62
     7
  6
CONTINUOUS
370
    13
390
15A5
347
15E7
1001
AcAecLayerStandard
1000

1000

1001
AcCmTransparency
1071
        0
  0
LAYER
  5
1653
330
2
100
AcDbSymbolTableRecord
100
AcDbLayerTableRecord
  2
部材(ﾋﾞｽ類)
 70
     0
 62
     7
  6
CONTINUOUS
370
    13
390
15A5
347
15E7
1001
AcAecLayerStandard
1000

1000

1001
AcCmTransparency
1071
        0
  0
LAYER
  5
1654
330
2
100
AcDbSymbolTableRecord
100
AcDbLayerTableRecord
  2
断熱材
 70
     0
 62
     7
  6
CONTINUOUS
370
     9
390
15A5
347
15E7
1001
AcAecLayerStandard
1000

1000

1001
AcCmTransparency
1071
        0
  0
LAYER
  5
1655
330
2
100
AcDbSymbolTableRecord
100
AcDbLayerTableRecord
  2
野地板
 70
     0
 62
    45
  6
CONTINUOUS
370
    13
390
15A5
347
15E7
1001
AcAecLayerStandard
1000

1000

1001
AcCmTransparency
1071
        0
  0
LAYER
  5
192D
330
2
100
AcDbSymbolTableRecord
100
AcDbLayerTableRecord
  2
Defpoints
 70
     0
 62
     7
  6
CONTINUOUS
290
     0
370
    -3
390
15A5
347
15E7
  0
ENDTAB
  0
TABLE
  2
STYLE
  5
3
330
0
100
AcDbSymbolTable
 70
     4
  0
STYLE
  5
17
330
3
100
AcDbSymbolTableRecord
100
AcDbTextStyleTableRecord
  2
STANDARD
 70
     0
 40
0.0
 41
1.0
 50
0.0
 71
     0
 42
0.0
  3
txt
  4
BIGFONT
  0
STYLE
  5
1E
330
3
100
AcDbSymbolTableRecord
100
AcDbTextStyleTableRecord
  2
TATEGAKI
 70
     4
 40
0.0
 41
1.0
 50
0.0
 71
     0
 42
0.0
  3
txt
  4
BIGFONT
  0
STYLE
  5
165A
330
3
100
AcDbSymbolTableRecord
100
AcDbTextStyleTableRecord
  2
基本スタイル
 70
     0
 40
0.0
 41
1.0
 50
0.0
 71
     0
 42
0.0
  3
msgothic.ttc
  4

1001
ACAD
1000
MS Gothic
1071
    32817
  0
STYLE
  5
165B
330
3
100
AcDbSymbolTableRecord
100
AcDbTextStyleTableRecord
  2
ＭＳ ゴシック
 70
     0
 40
6.0
 41
1.0
 50
0.0
 71
     0
 42
0.0
  3
msgothic.ttc
  4

1001
ACAD
1000
MS Gothic
1071
    32817
  0
ENDTAB
  0
TABLE
  2
VIEW
  5
5
330
0
100
AcDbSymbolTable
 70
     0
  0
ENDTAB
  0
TABLE
  2
UCS
  5
6
330
0
100
AcDbSymbolTable
 70
     0
  0
ENDTAB
  0
TABLE
  2
APPID
  5
8
330
0
100
AcDbSymbolTable
 70
     6
  0
APPID
  5
16
330
8
100
AcDbSymbolTableRecord
100
AcDbRegAppTableRecord
  2
ACAD
 70
     0
  0
APPID
  5
1632
330
8
100
AcDbSymbolTableRecord
100
AcDbRegAppTableRecord
  2
ACAD_MLEADERVER
 70
     0
  0
APPID
  5
1643
330
8
100
AcDbSymbolTableRecord
100
AcDbRegAppTableRecord
  2
AcAecLayerStandard
 70
     0
  0
APPID
  5
1644
330
8
100
AcDbSymbolTableRecord
100
AcDbRegAppTableRecord
  2
AcCmTransparency
 70
     0
  0
APPID
  5
1658
330
8
100
AcDbSymbolTableRecord
100
AcDbRegAppTableRecord
  2
AcadAnnotative
 70
     0
  0
APPID
  5
1659
330
8
100
AcDbSymbolTableRecord
100
AcDbRegAppTableRecord
  2
HATCHBACKGROUNDCOLOR
 70
     0
  0
ENDTAB
  0
TABLE
  2
DIMSTYLE
  5
9
330
0
100
AcDbSymbolTable
 70
     1
100
AcDbDimStyleTable
  0
DIMSTYLE
105
18
330
9
100
AcDbSymbolTableRecord
100
AcDbDimStyleTableRecord
  2
STANDARD
 70
     0
178
     0
289
     0
340
17
  0
ENDTAB
  0
TABLE
  2
BLOCK_RECORD
  5
1
330
0
100
AcDbSymbolTable
 70
    18
  0
BLOCK_RECORD
  5
A
330
1
100
AcDbSymbolTableRecord
100
AcDbBlockTableRecord
  2
*MODEL_SPACE
340
15C9
 70
     0
280
     1
281
     0
  0
BLOCK_RECORD
  5
B
330
1
100
AcDbSymbolTableRecord
100
AcDbBlockTableRecord
  2
*PAPER_SPACE
340
15CA
 70
     0
280
     1
281
     0
  0
BLOCK_RECORD
  5
16AB
102
{ACAD_XDICTIONARY
360
16AC
102
}
330
1
100
AcDbSymbolTableRecord
100
AcDbBlockTableRecord
  2
囲い文字1
340
0
102
{BLKREFS
331
16AA
331
1926
331
1B70
331
1B95
331
1B9D
331
1BB5
331
1BC5
102
}
 70
     4
280
     1
281
     0
1001
AcadAnnotative
1000
AnnotativeData
1002
{
1070
     1
1070
     0
1002
}
1001
ACAD
1000
DesignCenter Data
1002
{
1070
     1
1070
     4
1002
}
  0
BLOCK_RECORD
  5
16B7
102
{ACAD_XDICTIONARY
360
16B8
102
}
330
1
100
AcDbSymbolTableRecord
100
AcDbBlockTableRecord
  2
囲い文字2
340
0
102
{BLKREFS
331
16B6
331
1928
331
1B72
331
1B97
331
1B9F
331
1BB7
331
1BC9
102
}
 70
     4
280
     1
281
     0
1001
AcadAnnotative
1000
AnnotativeData
1002
{
1070
     1
1070
     0
1002
}
1001
ACAD
1000
DesignCenter Data
1002
{
1070
     1
1070
     4
1002
}
  0
BLOCK_RECORD
  5
16C3
102
{ACAD_XDICTIONARY
360
16C4
102
}
330
1
100
AcDbSymbolTableRecord
100
AcDbBlockTableRecord
  2
囲い文字3
340
0
102
{BLKREFS
331
16C2
331
192A
331
1B74
331
1B99
331
1BA1
331
1BB9
331
1BCD
102
}
 70
     4
280
     1
281
     0
1001
AcadAnnotative
1000
AnnotativeData
1002
{
1070
     1
1070
     0
1002
}
1001
ACAD
1000
DesignCenter Data
1002
{
1070
     1
1070
     4
1002
}
  0
BLOCK_RECORD
  5
16CF
102
{ACAD_XDICTIONARY
360
16D0
102
}
330
1
100
AcDbSymbolTableRecord
100
AcDbBlockTableRecord
  2
囲い文字4
340
0
102
{BLKREFS
331
16CE
331
192C
331
1B76
331
1B9B
331
1BA3
331
1BBB
331
1BD1
102
}
 70
     4
280
     1
281
     0
1001
AcadAnnotative
1000
AnnotativeData
1002
{
1070
     1
1070
     0
1002
}
1001
ACAD
1000
DesignCenter Data
1002
{
1070
     1
1070
     4
1002
}
  0
BLOCK_RECORD
  5
16A8
330
1
100
AcDbSymbolTableRecord
100
AcDbBlockTableRecord
  2
*U6
340
0
102
{BLKREFS
331
16A7
102
}
 70
     0
280
     1
281
     0
  0
BLOCK_RECORD
  5
16B4
330
1
100
AcDbSymbolTableRecord
100
AcDbBlockTableRecord
  2
*U7
340
0
102
{BLKREFS
331
16B3
102
}
 70
     0
280
     1
281
     0
  0
BLOCK_RECORD
  5
16C0
330
1
100
AcDbSymbolTableRecord
100
AcDbBlockTableRecord
  2
*U8
340
0
102
{BLKREFS
331
16BF
102
}
 70
     0
280
     1
281
     0
  0
BLOCK_RECORD
  5
16CC
330
1
100
AcDbSymbolTableRecord
100
AcDbBlockTableRecord
  2
*U9
340
0
102
{BLKREFS
331
16CB
102
}
 70
     0
280
     1
281
     0
  0
BLOCK_RECORD
  5
16E4
102
{ACAD_XDICTIONARY
360
16E5
102
}
330
1
100
AcDbSymbolTableRecord
100
AcDbBlockTableRecord
  2
表題欄(定義)
340
0
102
{BLKREFS
331
1963
102
}
 70
     4
280
     1
281
     0
1001
AcadAnnotative
1000
AnnotativeData
1002
{
1070
     1
1070
     0
1002
}
1001
ACAD
1000
DesignCenter Data
1002
{
1070
     1
1070
     4
1002
}
  0
BLOCK_RECORD
  5
1B6E
330
1
100
AcDbSymbolTableRecord
100
AcDbBlockTableRecord
  2
*T16
340
0
102
{BLKREFS
331
1962
102
}
 70
     0
280
     1
281
     0
  0
BLOCK_RECORD
  5
1B94
330
1
100
AcDbSymbolTableRecord
100
AcDbBlockTableRecord
  2
*U21
340
0
102
{BLKREFS
331
1932
102
}
 70
     0
280
     1
281
     0
  0
BLOCK_RECORD
  5
1B96
330
1
100
AcDbSymbolTableRecord
100
AcDbBlockTableRecord
  2
*U22
340
0
102
{BLKREFS
331
1933
102
}
 70
     0
280
     1
281
     0
  0
BLOCK_RECORD
  5
1B98
330
1
100
AcDbSymbolTableRecord
100
AcDbBlockTableRecord
  2
*U23
340
0
102
{BLKREFS
331
1934
102
}
 70
     0
280
     1
281
     0
  0
BLOCK_RECORD
  5
1B9A
330
1
100
AcDbSymbolTableRecord
100
AcDbBlockTableRecord
  2
*U24
340
0
102
{BLKREFS
331
1935
102
}
 70
     0
280
     1
281
     0
  0
BLOCK_RECORD
  5
1BC4
330
1
100
AcDbSymbolTableRecord
100
AcDbBlockTableRecord
  2
*U33
340
0
102
{BLKREFS
331
1B7B
102
}
 70
     0
280
     1
281
     0
  0
BLOCK_RECORD
  5
1BC8
330
1
100
AcDbSymbolTableRecord
100
AcDbBlockTableRecord
  2
*U34
340
0
102
{BLKREFS
331
1B7C
102
}
 70
     0
280
     1
281
     0
  0
BLOCK_RECORD
  5
1BCC
330
1
100
AcDbSymbolTableRecord
100
AcDbBlockTableRecord
  2
*U35
340
0
102
{BLKREFS
331
1B7D
102
}
 70
     0
280
     1
281
     0
  0
BLOCK_RECORD
  5
1BD0
330
1
100
AcDbSymbolTableRecord
100
AcDbBlockTableRecord
  2
*U36
340
0
102
{BLKREFS
331
1B7E
102
}
 70
     0
280
     1
281
     0
  0
ENDTAB
  0
ENDSEC
  0
SECTION
  2
BLOCKS
  0
BLOCK
  5
D
330
A
100
AcDbEntity
  8
0
100
AcDbBlockBegin
  2
*MODEL_SPACE
 70
     0
 10
0.0
 20
0.0
 30
0.0
  3
*MODEL_SPACE
  1

  0
ENDBLK
  5
E
330
A
100
AcDbEntity
  8
0
100
AcDbBlockEnd
  0
BLOCK
  5
F
330
B
100
AcDbEntity
 67
     1
  8
0
100
AcDbBlockBegin
  2
*PAPER_SPACE
 70
     0
 10
0.0
 20
0.0
 30
0.0
  3
*PAPER_SPACE
  1

  0
ENDBLK
  5
10
330
B
100
AcDbEntity
 67
     1
  8
0
100
AcDbBlockEnd
  0
BLOCK
  5
1945
330
16AB
100
AcDbEntity
  8
0
100
AcDbBlockBegin
  2
囲い文字1
 70
     0
 10
0.0
 20
0.0
 30
0.0
  3
囲い文字1
  1

  0
TEXT
  5
16AF
330
16AB
100
AcDbEntity
  8
文字
 62
     5
100
AcDbText
 10
-0.150726441143
 20
-12.80598100318
 30
0.0
 40
1.9
  1
1
  7
ＭＳ ゴシック
 72
     1
 11
0.467005208226
 21
-11.85598100318
 31
0.0
100
AcDbText
 73
     2
  0
LWPOLYLINE
  5
16B0
330
16AB
100
AcDbEntity
  8
文字
 62
     5
100
AcDbPolyline
 90
        3
 70
     1
 43
0.05
 10
-1.207936290659
 20
-13.006522891064
 10
0.467005208226
 20
-10.105439115294
 10
2.14194670711
 20
-13.006522891064
  0
ENDBLK
  5
1946
330
16AB
100
AcDbEntity
  8
0
100
AcDbBlockEnd
  0
BLOCK
  5
1949
330
16B7
100
AcDbEntity
  8
0
100
AcDbBlockBegin
  2
囲い文字2
 70
     0
 10
0.0
 20
0.0
 30
0.0
  3
囲い文字2
  1

  0
TEXT
  5
16BB
330
16B7
100
AcDbEntity
  8
文字
 62
     5
100
AcDbText
 10
-7.36181652199
 20
15.833311817329
 30
0.0
 40
1.9
  1
2
  7
ＭＳ ゴシック
 72
     1
 11
-6.744084872622
 21
16.783311817329
 31
0.0
100
AcDbText
 73
     2
  0
LWPOLYLINE
  5
16BC
330
16B7
100
AcDbEntity
  8
文字
 62
     5
100
AcDbPolyline
 90
        3
 70
     1
 43
0.05
 10
-8.419026371506
 20
15.632769929445
 10
-6.744084872622
 20
18.533853705216
 10
-5.069143373737
 20
15.632769929445
  0
ENDBLK
  5
194A
330
16B7
100
AcDbEntity
  8
0
100
AcDbBlockEnd
  0
BLOCK
  5
194D
330
16C3
100
AcDbEntity
  8
0
100
AcDbBlockBegin
  2
囲い文字3
 70
     0
 10
0.0
 20
0.0
 30
0.0
  3
囲い文字3
  1

  0
TEXT
  5
16C7
330
16C3
100
AcDbEntity
  8
文字
 62
     5
100
AcDbText
 10
-3.138684270054
 20
7.425323742515
 30
0.0
 40
1.9
  1
3
  7
ＭＳ ゴシック
 72
     1
 11
-2.520952620685
 21
8.375323742515
 31
0.0
100
AcDbText
 73
     2
  0
LWPOLYLINE
  5
16C8
330
16C3
100
AcDbEntity
  8
文字
 62
     5
100
AcDbPolyline
 90
        3
 70
     1
 43
0.05
 10
-4.19589411957
 20
7.224781854631
 10
-2.520952620685
 20
10.125865630402
 10
-0.846011121801
 20
7.224781854631
  0
ENDBLK
  5
194E
330
16C3
100
AcDbEntity
  8
0
100
AcDbBlockEnd
  0
BLOCK
  5
1951
330
16CF
100
AcDbEntity
  8
0
100
AcDbBlockBegin
  2
囲い文字4
 70
     0
 10
0.0
 20
0.0
 30
0.0
  3
囲い文字4
  1

  0
TEXT
  5
16D3
330
16CF
100
AcDbEntity
  8
文字
 62
     5
100
AcDbText
 10
-3.448589732188
 20
5.51332470249
 30
0.0
 40
1.9
  1
4
  7
ＭＳ ゴシック
 72
     1
 11
-2.83085808282
 21
6.46332470249
 31
0.0
100
AcDbText
 73
     2
  0
LWPOLYLINE
  5
16D4
330
16CF
100
AcDbEntity
  8
文字
 62
     5
100
AcDbPolyline
 90
        3
 70
     1
 43
0.05
 10
-4.505799581704
 20
5.312782814606
 10
-2.83085808282
 20
8.213866590377
 10
-1.155916583935
 20
5.312782814606
  0
ENDBLK
  5
1952
330
16CF
100
AcDbEntity
  8
0
100
AcDbBlockEnd
  0
BLOCK
  5
1943
330
16A8
100
AcDbEntity
  8
0
100
AcDbBlockBegin
  2
*U6
 70
     1
 10
0.0
 20
0.0
 30
0.0
  3
*U6
  1

  0
INSERT
  5
16AA
330
16A8
100
AcDbEntity
  8
構築線
 62
     0
100
AcDbBlockReference
  2
囲い文字1
 10
4.163741498082
 20
44.833324013919
 30
0.0
 41
3.446987668374
 42
3.446987668374
 43
3.446987668374
  0
ENDBLK
  5
1944
330
16A8
100
AcDbEntity
  8
0
100
AcDbBlockEnd
  0
BLOCK
  5
1947
330
16B4
100
AcDbEntity
  8
0
100
AcDbBlockBegin
  2
*U7
 70
     1
 10
0.0
 20
0.0
 30
0.0
  3
*U7
  1

  0
INSERT
  5
16B6
330
16B4
100
AcDbEntity
  8
構築線
 62
     0
100
AcDbBlockReference
  2
囲い文字2
 10
29.020280082295
 20
-53.885965169321
 30
0.0
 41
3.446987668374
 42
3.446987668374
 43
3.446987668374
  0
ENDBLK
  5
1948
330
16B4
100
AcDbEntity
  8
0
100
AcDbBlockEnd
  0
BLOCK
  5
194B
330
16C0
100
AcDbEntity
  8
0
100
AcDbBlockBegin
  2
*U8
 70
     1
 10
0.0
 20
0.0
 30
0.0
  3
*U8
  1

  0
INSERT
  5
16C2
330
16C0
100
AcDbEntity
  8
構築線
 62
     0
100
AcDbBlockReference
  2
囲い文字3
 10
14.463195287959
 20
-24.903733959604
 30
0.0
 41
3.446987668374
 42
3.446987668374
 43
3.446987668374
  0
ENDBLK
  5
194C
330
16C0
100
AcDbEntity
  8
0
100
AcDbBlockEnd
  0
BLOCK
  5
194F
330
16CC
100
AcDbEntity
  8
0
100
AcDbBlockBegin
  2
*U9
 70
     1
 10
0.0
 20
0.0
 30
0.0
  3
*U9
  1

  0
INSERT
  5
16CE
330
16CC
100
AcDbEntity
  8
構築線
 62
     0
100
AcDbBlockReference
  2
囲い文字4
 10
15.531435594298
 20
-18.313096846695
 30
0.0
 41
3.446987668374
 42
3.446987668374
 43
3.446987668374
  0
ENDBLK
  5
1950
330
16CC
100
AcDbEntity
  8
0
100
AcDbBlockEnd
  0
BLOCK
  5
1953
330
16E4
100
AcDbEntity
  8
0
100
AcDbBlockBegin
  2
表題欄(定義)
 70
     2
 10
0.0
 20
0.0
 30
0.0
  3
表題欄(定義)
  1

  0
LINE
  5
16E8
330
16E4
100
AcDbEntity
  8
表題欄
100
AcDbLine
 10
-10.971098027232
 20
-50.087425312518
 30
0.0
 11
-10.971098027232
 21
-12.587447994505
 31
0.0
  0
ATTDEF
  5
16E9
330
16E4
100
AcDbEntity
  8
表題欄
100
AcDbText
 10
26.845498819392
 20
-41.087447994505
 30
0.0
 40
1.5
  1

  7
ＭＳ ゴシック
 72
     1
 11
26.845498819392
 21
-40.337447994505
 31
0.0
100
AcDbAttributeDefinition
  3
備考
  2
REMARKS
 70
     0
 74
     2
280
     0
  0
ATTDEF
  5
16EA
330
16E4
100
AcDbEntity
  8
表題欄
100
AcDbText
 10
12.466401972768
 20
-41.087447994505
 30
0.0
 40
1.5
  1

  7
ＭＳ ゴシック
 72
     1
 11
12.466401972768
 21
-40.337447994505
 31
0.0
100
AcDbAttributeDefinition
  3
縮尺
  2
SCALE
 70
     0
 74
     2
280
     0
  0
ATTDEF
  5
16EB
330
16E4
100
AcDbEntity
  8
表題欄
100
AcDbText
 10
13.631096545734
 20
-33.587447994505
 30
0.0
 40
1.5
  1

  7
ＭＳ ゴシック
 72
     1
 11
13.631096545734
 21
-32.837447994505
 31
0.0
100
AcDbAttributeDefinition
  3
図番
  2
DRAWING　NO.
 70
     0
 74
     2
280
     0
  0
ATTDEF
  5
16EC
330
16E4
100
AcDbEntity
  8
表題欄
100
AcDbText
 10
11.68036502141
 20
-26.087447994505
 30
0.0
 40
1.5
  1

  7
ＭＳ ゴシック
 72
     1
 11
11.68036502141
 21
-25.337447994505
 31
0.0
100
AcDbAttributeDefinition
  3
部位
  2
POSITION
 70
     0
 74
     2
280
     0
  0
ATTDEF
  5
16ED
330
16E4
100
AcDbEntity
  8
表題欄
100
AcDbText
 10
9.729633497089
 20
-18.587447994505
 30
0.0
 40
1.5
  1

  7
ＭＳ ゴシック
 72
     1
 11
9.729633497089
 21
-17.837447994505
 31
0.0
100
AcDbAttributeDefinition
  3
名称
  2
NAME
 70
     0
 74
     2
280
     0
  0
ATTDEF
  5
16EE
330
16E4
100
AcDbEntity
  8
表題欄
100
AcDbText
 10
-3.158598027232
 20
-48.587447994505
 30
0.0
 40
1.5
  1

  7
ＭＳ ゴシック
 72
     1
 11
-3.158598027232
 21
-47.837447994505
 31
0.0
100
AcDbAttributeDefinition
  3
製図
  2
DRAWING
 70
     0
 74
     2
280
     0
  0
ATTDEF
  5
16EF
330
16E4
100
AcDbEntity
  8
表題欄
100
AcDbText
 10
-3.158598027232
 20
-41.087447994505
 30
0.0
 40
1.5
  1

  7
ＭＳ ゴシック
 72
     1
 11
-3.158598027232
 21
-40.337447994505
 31
0.0
100
AcDbAttributeDefinition
  3
設計
  2
DESIGNED
 70
     0
 74
     2
280
     0
  0
ATTDEF
  5
16F0
330
16E4
100
AcDbEntity
  8
表題欄
100
AcDbText
 10
-3.158598027232
 20
-33.587447994505
 30
0.0
 40
1.5
  1

  7
ＭＳ ゴシック
 72
     1
 11
-3.158598027232
 21
-32.837447994505
 31
0.0
100
AcDbAttributeDefinition
  3
検図
  2
CHECKED
 70
     0
 74
     2
280
     0
  0
TEXT
  5
16F1
330
16E4
100
AcDbEntity
  8
表題欄
100
AcDbText
 10
-10.456568854787
 20
-22.337436653514
 30
0.0
 40
1.5
  1
出 図  ISSUE
  7
ＭＳ ゴシック
 72
     1
 11
-4.604374281822
 21
-21.587436653514
 31
0.0
100
AcDbText
 73
     2
  0
ATTDEF
  5
16F2
330
16E4
100
AcDbEntity
  8
表題欄
100
AcDbText
 10
-3.158598027232
 20
-26.087447994505
 30
0.0
 40
1.5
  1

  7
ＭＳ ゴシック
 72
     1
 11
-3.158598027232
 21
-25.337447994505
 31
0.0
100
AcDbAttributeDefinition
  3
出図
  2
ISSUE
 70
     0
 74
     2
280
     0
  0
ATTDEF
  5
16F3
330
16E4
100
AcDbEntity
  8
表題欄
100
AcDbText
 10
-3.158598027232
 20
-18.587447994505
 30
0.0
 40
1.5
  1

  7
ＭＳ ゴシック
 72
     1
 11
-3.158598027232
 21
-17.837447994505
 31
0.0
100
AcDbAttributeDefinition
  3
初版作成日
  2
DATE
 70
     0
 74
     2
280
     0
  0
LINE
  5
16F4
330
16E4
100
AcDbEntity
  8
仮想線
100
AcDbLine
 10
7.778901972768
 20
-12.587447994505
 30
0.0
 11
7.778901972768
 21
-50.087447994505
 31
0.0
  0
LINE
  5
16F5
330
16E4
100
AcDbEntity
  8
仮想線
100
AcDbLine
 10
7.778901972768
 20
-17.743697994505
 30
0.0
 11
-10.971098027232
 21
-17.743697994505
 31
0.0
  0
LINE
  5
16F6
330
16E4
100
AcDbEntity
  8
仮想線
100
AcDbLine
 10
-3.158598027232
 20
-12.587447994505
 30
0.0
 11
-3.158598027232
 21
-50.087447994505
 31
0.0
  0
TEXT
  5
16F7
330
16E4
100
AcDbEntity
  8
表題欄
100
AcDbText
 10
20.901158756562
 20
-37.337436653514
 30
0.0
 40
1.5
  1
備 考   REMARKS
  7
ＭＳ ゴシック
 72
     1
 11
28.216401972768
 21
-36.587436653514
 31
0.0
100
AcDbText
 73
     2
  0
LINE
  5
16F8
330
16E4
100
AcDbEntity
  8
表題欄
100
AcDbLine
 10
20.278901972768
 20
-35.087447994505
 30
0.0
 11
20.278901972768
 21
-42.587447994505
 31
0.0
  0
TEXT
  5
16F9
330
16E4
100
AcDbEntity
  8
表題欄
100
AcDbText
 10
5.364207399803
 20
-37.337413971523
 30
0.0
 40
1.5
  1
縮 尺  SCALE
  7
ＭＳ ゴシック
 72
     1
 11
11.216401972768
 21
-36.587413971523
 31
0.0
100
AcDbText
 73
     2
  0
TEXT
  5
16FA
330
16E4
100
AcDbEntity
  8
表題欄
100
AcDbText
 10
5.313110113321
 20
-29.837413971523
 30
0.0
 40
1.5
  1
図 番  DRAWING No.
  7
ＭＳ ゴシック
 72
     1
 11
14.091401972768
 21
-29.087413971523
 31
0.0
100
AcDbText
 73
     2
  0
TEXT
  5
16FB
330
16E4
100
AcDbEntity
  8
表題欄
100
AcDbText
 10
5.276158756562
 20
-22.337436653514
 30
0.0
 40
1.5
  1
部 位  POSITION
  7
ＭＳ ゴシック
 72
     1
 11
12.591401972768
 21
-21.587436653514
 31
0.0
100
AcDbText
 73
     2
  0
TEXT
  5
16FC
330
16E4
100
AcDbEntity
  8
表題欄
100
AcDbText
 10
5.351890280883
 20
-14.837413971523
 30
0.0
 40
1.5
  1
名 称  NAME
  7
ＭＳ ゴシック
 72
     1
 11
10.716401972768
 21
-14.087413971523
 31
0.0
100
AcDbText
 73
     2
  0
LINE
  5
16FD
330
16E4
100
AcDbEntity
  8
仮想線
100
AcDbLine
 10
-10.971098027232
 20
-45.587447994505
 30
0.0
 11
4.653901972768
 21
-45.587447994505
 31
0.0
  0
TEXT
  5
16FE
330
16E4
100
AcDbEntity
  8
表題欄
100
AcDbText
 10
-10.236158362358
 20
-44.837436653514
 30
0.0
 40
1.5
  1
製 図  DRAWING
  7
ＭＳ ゴシック
 72
     1
 11
-3.408598027232
 21
-44.087436653514
 31
0.0
100
AcDbText
 73
     2
  0
LINE
  5
16FF
330
16E4
100
AcDbEntity
  8
仮想線
100
AcDbLine
 10
-10.971098027232
 20
-38.087447994505
 30
0.0
 11
4.653901972768
 21
-38.087447994505
 31
0.0
  0
TEXT
  5
1700
330
16E4
100
AcDbEntity
  8
表題欄
100
AcDbText
 10
-10.348841243438
 20
-37.337436653514
 30
0.0
 40
1.5
  1
設 計  DESIGNED
  7
ＭＳ ゴシック
 72
     1
 11
-3.033598027232
 21
-36.587436653514
 31
0.0
100
AcDbText
 73
     2
  0
LINE
  5
1701
330
16E4
100
AcDbEntity
  8
仮想線
100
AcDbLine
 10
-10.971098027232
 20
-30.587447994505
 30
0.0
 11
4.653901972768
 21
-30.587447994505
 31
0.0
  0
TEXT
  5
1702
330
16E4
100
AcDbEntity
  8
表題欄
100
AcDbText
 10
-10.486158362358
 20
-29.837436653514
 30
0.0
 40
1.5
  1
検 図  CHECKED
  7
ＭＳ ゴシック
 72
     1
 11
-3.658598027232
 21
-29.087436653514
 31
0.0
100
AcDbText
 73
     2
  0
LINE
  5
1703
330
16E4
100
AcDbEntity
  8
仮想線
100
AcDbLine
 10
-10.971098027232
 20
-23.087447994505
 30
0.0
 11
4.653901972768
 21
-23.087447994505
 31
0.0
  0
LINE
  5
1704
330
16E4
100
AcDbEntity
  8
表題欄
100
AcDbLine
 10
-10.971098027232
 20
-20.087447994505
 30
0.0
 11
54.653901972768
 21
-20.087447994505
 31
0.0
  0
LINE
  5
1705
330
16E4
100
AcDbEntity
  8
仮想線
100
AcDbLine
 10
-10.971098027232
 20
-15.587447994505
 30
0.0
 11
4.653901972768
 21
-15.587447994505
 31
0.0
  0
LINE
  5
1706
330
16E4
100
AcDbEntity
  8
表題欄
100
AcDbLine
 10
-10.971098027232
 20
-42.587447994505
 30
0.0
 11
54.653901972768
 21
-42.587447994505
 31
0.0
  0
LINE
  5
1707
330
16E4
100
AcDbEntity
  8
表題欄
100
AcDbLine
 10
-10.971098027232
 20
-35.087447994505
 30
0.0
 11
54.653901972768
 21
-35.087447994505
 31
0.0
  0
LINE
  5
1708
330
16E4
100
AcDbEntity
  8
表題欄
100
AcDbLine
 10
-10.971098027232
 20
-27.587447994505
 30
0.0
 11
54.653901972768
 21
-27.587447994505
 31
0.0
  0
LINE
  5
1709
330
16E4
100
AcDbEntity
  8
表題欄
100
AcDbLine
 10
-10.971098027232
 20
-20.087447994505
 30
0.0
 11
4.653901972768
 21
-20.087447994505
 31
0.0
  0
LINE
  5
170A
330
16E4
100
AcDbEntity
  8
表題欄
100
AcDbLine
 10
4.653901972768
 20
-12.587425312518
 30
0.0
 11
4.653901972768
 21
-50.087402630532
 31
0.0
  0
LINE
  5
170B
330
16E4
100
AcDbEntity
  8
表題欄
100
AcDbLine
 10
54.653901972768
 20
-12.587425312518
 30
0.0
 11
54.653901972768
 21
-50.087402630532
 31
0.0
  0
LINE
  5
170C
330
16E4
100
AcDbEntity
  8
表題欄
100
AcDbLine
 10
-10.971098027232
 20
-50.087425312518
 30
0.0
 11
54.653901972768
 21
-50.087425312518
 31
0.0
  0
LINE
  5
170D
330
16E4
100
AcDbEntity
  8
表題欄
100
AcDbLine
 10
-10.971098027232
 20
-12.587447994505
 30
0.0
 11
-10.971098027232
 21
-50.087425312518
 31
0.0
  0
LINE
  5
170E
330
16E4
100
AcDbEntity
  8
表題欄
100
AcDbLine
 10
-10.971098027232
 20
-12.587447994505
 30
0.0
 11
54.653901972768
 21
-12.587447994505
 31
0.0
  0
TEXT
  5
170F
330
16E4
100
AcDbEntity
  8
表題欄
100
AcDbText
 10
12.197265287505
 20
-45.694515786829
 30
0.0
 40
2.5
  1
HAYAKAWA RUBER.CO.,LTD
  7
ＭＳ ゴシック
 72
     1
 11
30.078970927119
 21
-44.444515786829
 31
0.0
100
AcDbText
 73
     2
  0
TEXT
  5
1710
330
16E4
100
AcDbEntity
  8
表題欄
100
AcDbText
 10
16.892502341332
 20
-49.236756287726
 30
0.0
 40
2.5
  1
早川ゴム株式会社
  7
ＭＳ ゴシック
 72
     1
 11
29.897379170143
 21
-47.986756287726
 31
0.0
100
AcDbText
 73
     2
  0
TEXT
  5
1711
330
16E4
100
AcDbEntity
  8
表題欄
100
AcDbText
 10
-10.723841243438
 20
-14.837436653514
 30
0.0
 40
1.5
  1
初版作成日 DATE
  7
ＭＳ ゴシック
 72
     1
 11
-3.408598027232
 21
-14.087436653514
 31
0.0
100
AcDbText
 73
     2
  0
TEXT
  5
1712
330
16E4
100
AcDbEntity
  8
表題欄
100
AcDbText
 10
12.829009282394
 20
-48.774815337686
 30
0.0
 40
1.296537313423
  1
早
  7
ＭＳ ゴシック
 72
     4
 11
13.672074685644
 21
-48.192370633613
 31
0.0
100
AcDbText
  0
CIRCLE
  5
1713
330
16E4
100
AcDbEntity
  8
表題欄
100
AcDbCircle
 10
13.672074685644
 20
-48.192370633613
 30
0.0
 40
1.243443373654526
  0
CIRCLE
  5
1714
330
16E4
100
AcDbEntity
  8
表題欄
100
AcDbCircle
 10
14.251608110648
 20
-47.888691940232
 30
0.0
 40
1.899437983206664
  0
ENDBLK
  5
1954
330
16E4
100
AcDbEntity
  8
0
100
AcDbBlockEnd
  0
BLOCK
  5
1B8A
330
1B6E
100
AcDbEntity
  8
0
100
AcDbBlockBegin
  2
*T16
 70
     1
 10
0.0
 20
0.0
 30
0.0
  3
*T16
  1

  0
MTEXT
  5
1B77
330
1B6E
100
AcDbEntity
  8
表題欄
 62
     0
100
AcDbMText
 10
18.75
 20
6.875
 30
0.0
 40
7.5
 41
33.75
 46
0.0
 71
     5
 72
     5
  1
符号
  7
ＭＳ ゴシック
 73
     1
 44
1.0
  0
MTEXT
  5
1B78
330
1B6E
100
AcDbEntity
  8
表題欄
 62
     0
100
AcDbMText
 10
62.5
 20
6.875
 30
0.0
 40
7.5
 41
46.25
 46
0.0
 71
     5
 72
     5
  1
日付
  7
ＭＳ ゴシック
 73
     1
 44
1.0
  0
MTEXT
  5
1B79
330
1B6E
100
AcDbEntity
  8
表題欄
 62
     0
100
AcDbMText
 10
106.25
 20
6.875
 30
0.0
 40
7.5
 41
33.75
 46
0.0
 71
     5
 72
     5
  1
訂正者
  7
ＭＳ ゴシック
 73
     1
 44
1.0
  0
MTEXT
  5
1B7A
330
1B6E
100
AcDbEntity
  8
表題欄
 62
     0
100
AcDbMText
 10
287.5
 20
6.875
 30
0.0
 40
7.5
 41
321.25
 46
0.0
 71
     5
 72
     5
  1
訂正概要
  7
ＭＳ ゴシック
 73
     1
 44
1.0
  0
INSERT
  5
1B7B
330
1B6E
100
AcDbEntity
  8
表題欄
 62
     0
100
AcDbBlockReference
  2
*U33
 10
12.976497308098
 20
15.625
 30
0.0
  0
INSERT
  5
1B7C
330
1B6E
100
AcDbEntity
  8
表題欄
 62
     0
100
AcDbBlockReference
  2
*U34
 10
12.976497308098
 20
29.375
 30
0.0
  0
INSERT
  5
1B7D
330
1B6E
100
AcDbEntity
  8
表題欄
 62
     0
100
AcDbBlockReference
  2
*U35
 10
12.976497308098
 20
43.125
 30
0.0
  0
INSERT
  5
1B7E
330
1B6E
100
AcDbEntity
  8
表題欄
 62
     0
100
AcDbBlockReference
  2
*U36
 10
12.976497308098
 20
56.875
 30
0.0
  0
LINE
  5
1B7F
330
1B6E
100
AcDbEntity
  8
表題欄
  6
ByBlock
 62
     0
370
    -2
100
AcDbLine
 10
0.0
 20
0.0
 30
0.0
 11
450.0
 21
0.0
 31
0.0
  0
LINE
  5
1B80
330
1B6E
100
AcDbEntity
  8
表題欄
  6
ByBlock
 62
     0
370
    -2
100
AcDbLine
 10
0.0
 20
0.0
 30
0.0
 11
0.0
 21
68.75
 31
0.0
  0
LINE
  5
1B81
330
1B6E
100
AcDbEntity
  8
表題欄
  6
ByBlock
 62
     0
370
    -2
100
AcDbLine
 10
37.5
 20
0.0
 30
0.0
 11
37.5
 21
68.75
 31
0.0
  0
LINE
  5
1B82
330
1B6E
100
AcDbEntity
  8
表題欄
  6
ByBlock
 62
     0
370
    -2
100
AcDbLine
 10
87.5
 20
0.0
 30
0.0
 11
87.5
 21
68.75
 31
0.0
  0
LINE
  5
1B83
330
1B6E
100
AcDbEntity
  8
表題欄
  6
ByBlock
 62
     0
370
    -2
100
AcDbLine
 10
125.0
 20
0.0
 30
0.0
 11
125.0
 21
68.75
 31
0.0
  0
LINE
  5
1B84
330
1B6E
100
AcDbEntity
  8
表題欄
  6
ByBlock
 62
     0
370
    -2
100
AcDbLine
 10
450.0
 20
0.0
 30
0.0
 11
450.0
 21
68.75
 31
0.0
  0
LINE
  5
1B85
330
1B6E
100
AcDbEntity
  8
表題欄
  6
ByBlock
 62
     0
370
    -2
100
AcDbLine
 10
0.0
 20
13.75
 30
0.0
 11
450.0
 21
13.75
 31
0.0
  0
LINE
  5
1B86
330
1B6E
100
AcDbEntity
  8
表題欄
  6
ByBlock
 62
     0
370
    -2
100
AcDbLine
 10
0.0
 20
27.5
 30
0.0
 11
450.0
 21
27.5
 31
0.0
  0
LINE
  5
1B87
330
1B6E
100
AcDbEntity
  8
表題欄
  6
ByBlock
 62
     0
370
    -2
100
AcDbLine
 10
0.0
 20
41.25
 30
0.0
 11
450.0
 21
41.25
 31
0.0
  0
LINE
  5
1B88
330
1B6E
100
AcDbEntity
  8
表題欄
  6
ByBlock
 62
     0
370
    -2
100
AcDbLine
 10
0.0
 20
55.0
 30
0.0
 11
450.0
 21
55.0
 31
0.0
  0
LINE
  5
1B89
330
1B6E
100
AcDbEntity
  8
表題欄
  6
ByBlock
 62
     0
370
    -2
100
AcDbLine
 10
0.0
 20
68.75
 30
0.0
 11
450.0
 21
68.75
 31
0.0
  0
ENDBLK
  5
1B8B
330
1B6E
100
AcDbEntity
  8
0
100
AcDbBlockEnd
  0
BLOCK
  5
1BA4
330
1B94
100
AcDbEntity
  8
0
100
AcDbBlockBegin
  2
*U21
 70
     1
 10
0.0
 20
0.0
 30
0.0
  3
*U21
  1

  0
INSERT
  5
1B95
330
1B94
100
AcDbEntity
  8
0
100
AcDbBlockReference
  2
囲い文字1
 10
4.163741498082
 20
44.833324013919
 30
0.0
 41
3.446987668374
 42
3.446987668374
 43
3.446987668374
  0
ENDBLK
  5
1BA5
330
1B94
100
AcDbEntity
  8
0
100
AcDbBlockEnd
  0
BLOCK
  5
1BA6
330
1B96
100
AcDbEntity
  8
0
100
AcDbBlockBegin
  2
*U22
 70
     1
 10
0.0
 20
0.0
 30
0.0
  3
*U22
  1

  0
INSERT
  5
1B97
330
1B96
100
AcDbEntity
  8
0
100
AcDbBlockReference
  2
囲い文字2
 10
29.020280082295
 20
-53.885965169321
 30
0.0
 41
3.446987668374
 42
3.446987668374
 43
3.446987668374
  0
ENDBLK
  5
1BA7
330
1B96
100
AcDbEntity
  8
0
100
AcDbBlockEnd
  0
BLOCK
  5
1BA8
330
1B98
100
AcDbEntity
  8
0
100
AcDbBlockBegin
  2
*U23
 70
     1
 10
0.0
 20
0.0
 30
0.0
  3
*U23
  1

  0
INSERT
  5
1B99
330
1B98
100
AcDbEntity
  8
0
100
AcDbBlockReference
  2
囲い文字3
 10
14.463195287959
 20
-24.903733959604
 30
0.0
 41
3.446987668374
 42
3.446987668374
 43
3.446987668374
  0
ENDBLK
  5
1BA9
330
1B98
100
AcDbEntity
  8
0
100
AcDbBlockEnd
  0
BLOCK
  5
1BAA
330
1B9A
100
AcDbEntity
  8
0
100
AcDbBlockBegin
  2
*U24
 70
     1
 10
0.0
 20
0.0
 30
0.0
  3
*U24
  1

  0
INSERT
  5
1B9B
330
1B9A
100
AcDbEntity
  8
0
100
AcDbBlockReference
  2
囲い文字4
 10
15.531435594298
 20
-18.313096846695
 30
0.0
 41
3.446987668374
 42
3.446987668374
 43
3.446987668374
  0
ENDBLK
  5
1BAB
330
1B9A
100
AcDbEntity
  8
0
100
AcDbBlockEnd
  0
BLOCK
  5
1BC6
330
1BC4
100
AcDbEntity
  8
0
100
AcDbBlockBegin
  2
*U33
 70
     1
 10
0.0
 20
0.0
 30
0.0
  3
*U33
  1

  0
INSERT
  5
1BC5
330
1BC4
100
AcDbEntity
  8
0
100
AcDbBlockReference
  2
囲い文字1
 10
4.163741498082
 20
44.833324013919
 30
0.0
 41
3.446987668374
 42
3.446987668374
 43
3.446987668374
  0
ENDBLK
  5
1BC7
330
1BC4
100
AcDbEntity
  8
0
100
AcDbBlockEnd
  0
BLOCK
  5
1BCA
330
1BC8
100
AcDbEntity
  8
0
100
AcDbBlockBegin
  2
*U34
 70
     1
 10
0.0
 20
0.0
 30
0.0
  3
*U34
  1

  0
INSERT
  5
1BC9
330
1BC8
100
AcDbEntity
  8
0
100
AcDbBlockReference
  2
囲い文字2
 10
29.020280082295
 20
-53.885965169321
 30
0.0
 41
3.446987668374
 42
3.446987668374
 43
3.446987668374
  0
ENDBLK
  5
1BCB
330
1BC8
100
AcDbEntity
  8
0
100
AcDbBlockEnd
  0
BLOCK
  5
1BCE
330
1BCC
100
AcDbEntity
  8
0
100
AcDbBlockBegin
  2
*U35
 70
     1
 10
0.0
 20
0.0
 30
0.0
  3
*U35
  1

  0
INSERT
  5
1BCD
330
1BCC
100
AcDbEntity
  8
0
100
AcDbBlockReference
  2
囲い文字3
 10
14.463195287959
 20
-24.903733959604
 30
0.0
 41
3.446987668374
 42
3.446987668374
 43
3.446987668374
  0
ENDBLK
  5
1BCF
330
1BCC
100
AcDbEntity
  8
0
100
AcDbBlockEnd
  0
BLOCK
  5
1BD2
330
1BD0
100
AcDbEntity
  8
0
100
AcDbBlockBegin
  2
*U36
 70
     1
 10
0.0
 20
0.0
 30
0.0
  3
*U36
  1

  0
INSERT
  5
1BD1
330
1BD0
100
AcDbEntity
  8
0
100
AcDbBlockReference
  2
囲い文字4
 10
15.531435594298
 20
-18.313096846695
 30
0.0
 41
3.446987668374
 42
3.446987668374
 43
3.446987668374
  0
ENDBLK
  5
1BD3
330
1BD0
100
AcDbEntity
  8
0
100
AcDbBlockEnd
  0
ENDSEC
  0
SECTION
  2
ENTITIES
  0
LWPOLYLINE
  5
195F
330
A
100
AcDbEntity
  8
輪郭線
100
AcDbPolyline
 90
        4
 70
     1
 43
0.0
 10
1640.0
 20
1148.0
 10
40.0
 20
1148.0
 10
40.0
 20
40.0
 10
1640.0
 20
40.0
  0
LWPOLYLINE
  5
1960
330
A
100
AcDbEntity
  8
図面枠
100
AcDbPolyline
 90
        4
 70
     1
 43
0.0
 10
1680.0
 20
0.0
 10
1680.0
 20
1188.0
 10
0.0
 20
1188.0
 10
0.0
 20
0.0
  0
TEXT
  5
1961
330
A
100
AcDbEntity
  8
文字
100
AcDbText
 10
1381.016085259787
 20
201.201143699771
 30
0.0
 40
12.0
  1
＊防水部材の厚みはフリースケール
  7
ＭＳ ゴシック
 72
     1
 11
1505.86290281637
 21
207.201143699771
 31
0.0
100
AcDbText
 73
     2
  0
ACAD_TABLE
  5
1962
102
{ACAD_XDICTIONARY
360
1C55
102
}
330
A
100
AcDbEntity
  8
表題欄
160
               344
310
5801000002000000CC000000260000000000000000FC8C400000000000004440000000000000000000000000000000000000000000000000000000000000F03F000000000000F03F0000000000000000000000000000000041006300440062005400610062006C006500000009000000000000000000000000000000000000
310
000000F03F0000000000000000000000000000F03F00000000000000000000000000000000000000000000000000000000000000000000000000000000740078007400000042004900470046004F004E00540000008400000006000000050000000000000000FC8C4000000000000044400000000000000000000000000086
310
95400000000000004440000000000000000000000000008695400000000000305B4000000000000000000000000000FC8C400000000000305B4000000000000000000000000000FC8C4000000000000044400000000000000000
100
AcDbBlockReference
  2
*T16
 10
927.5
 20
40.0
 30
0.0
100
AcDbTable
342
1660
343
1B6E
 11
1.0
 21
0.0
 31
0.0
 90
        6
 91
        5
 92
        4
 93
       24
 94
        0
 95
        0
 96
        0
 40
1.875
 41
1.875
141
13.75
141
13.75
141
13.75
141
13.75
141
13.75
142
37.5
142
50.0
142
37.5
142
325.0
171
     1
172
     0
173
     0
174
     0
175
     1
176
     1
 91
       32
178
     0
145
0.0
140
7.5
 92
        0
301
CELL_VALUE
 93
        0
 90
        4
  1
符号
 94
        0
300

302

304
ACVALUE_END
171
     1
172
     0
173
     0
174
     0
175
     1
176
     1
 91
       32
178
     0
145
0.0
140
7.5
 92
        0
301
CELL_VALUE
 93
        0
 90
        4
  1
日付
 94
        0
300

302

304
ACVALUE_END
171
     1
172
     0
173
     0
174
     0
175
     1
176
     1
 91
       32
178
     0
145
0.0
140
7.5
 92
        0
301
CELL_VALUE
 93
        0
 90
        4
  1
訂正者
 94
        0
300

302

304
ACVALUE_END
171
     1
172
     0
173
     0
174
     0
175
     1
176
     1
 91
       32
178
     0
145
0.0
140
7.5
 92
        0
301
CELL_VALUE
 93
        0
 90
        4
  1
訂正概要
 94
        0
300

302

304
ACVALUE_END
171
     1
172
     0
173
     0
174
     0
175
     1
176
     1
 91
       32
178
     0
145
0.0
140
7.5
 92
        0
301
CELL_VALUE
 93
        0
 90
        4
  1

 94
        0
300

302

304
ACVALUE_END
171
     1
172
     0
173
     0
174
     0
175
     1
176
     1
 91
       32
178
     0
145
0.0
140
7.5
 92
        0
301
CELL_VALUE
 93
        0
 90
        4
  1

 94
        0
300

302

304
ACVALUE_END
171
     1
172
     0
173
     0
174
     0
175
     1
176
     1
 91
       32
178
     0
145
0.0
140
7.5
 92
        0
301
CELL_VALUE
 93
        0
 90
        4
  1

 94
        0
300

302

304
ACVALUE_END
171
     1
172
     0
173
     0
174
     0
175
     1
176
     1
 91
       33
178
     0
145
0.0
170
     4
140
7.5
 92
        0
301
CELL_VALUE
 93
        0
 90
        4
  1

 94
        0
300

302

304
ACVALUE_END
171
     1
172
     0
173
     0
174
     0
175
     1
176
     1
 91
       33
178
     0
145
0.0
170
     5
140
7.5
 92
        0
301
CELL_VALUE
 93
        0
 90
        4
  1

 94
        0
300

302

304
ACVALUE_END
171
     1
172
     0
173
     0
174
     0
175
     1
176
     1
 91
       33
178
     0
145
0.0
170
     5
140
7.5
 92
        0
301
CELL_VALUE
 93
        0
 90
        4
  1

 94
        0
300

302

304
ACVALUE_END
171
     1
172
     0
173
     0
174
     0
175
     1
176
     1
 91
       33
178
     0
145
0.0
170
     5
140
7.5
 92
        0
301
CELL_VALUE
 93
        0
 90
        4
  1

 94
        0
300

302

304
ACVALUE_END
171
     1
172
     0
173
     0
174
     0
175
     1
176
     1
 91
       33
178
     0
145
0.0
170
     4
140
7.5
 92
        0
301
CELL_VALUE
 93
        0
 90
        4
  1

 94
        0
300

302

304
ACVALUE_END
171
     1
172
     0
173
     0
174
     0
175
     1
176
     1
 91
       33
178
     0
145
0.0
170
     5
140
7.5
 92
        0
301
CELL_VALUE
 93
        0
 90
        4
  1

 94
        0
300

302

304
ACVALUE_END
171
     1
172
     0
173
     0
174
     0
175
     1
176
     1
 91
       33
178
     0
145
0.0
170
     5
140
7.5
 92
        0
301
CELL_VALUE
 93
        0
 90
        4
  1

 94
        0
300

302

304
ACVALUE_END
171
     1
172
     0
173
     0
174
     0
175
     1
176
     1
 91
       33
178
     0
145
0.0
170
     5
140
7.5
 92
        0
301
CELL_VALUE
 93
        0
 90
        4
  1

 94
        0
300

302

304
ACVALUE_END
171
     1
172
     0
173
     0
174
     0
175
     1
176
     1
 91
       33
178
     0
145
0.0
170
     4
140
7.5
 92
        0
301
CELL_VALUE
 93
        0
 90
        4
  1

 94
        0
300

302

304
ACVALUE_END
171
     1
172
     0
173
     0
174
     0
175
     1
176
     1
 91
       33
178
     0
145
0.0
170
     5
140
7.5
 92
        0
301
CELL_VALUE
 93
        0
 90
        4
  1

 94
        0
300

302

304
ACVALUE_END
171
     1
172
     0
173
     0
174
     0
175
     1
176
     1
 91
       33
178
     0
145
0.0
170
     5
140
7.5
 92
        0
301
CELL_VALUE
 93
        0
 90
        4
  1

 94
        0
300

302

304
ACVALUE_END
171
     1
172
     0
173
     0
174
     0
175
     1
176
     1
 91
       33
178
     0
145
0.0
170
     5
140
7.5
 92
        0
301
CELL_VALUE
 93
        0
 90
        4
  1

 94
        0
300

302

304
ACVALUE_END
171
     1
172
     0
173
     0
174
     0
175
     1
176
     1
 91
       33
178
     0
145
0.0
170
     4
140
7.5
 92
        0
301
CELL_VALUE
 93
        0
 90
        4
  1

 94
        0
300

302

304
ACVALUE_END
  0
INSERT
  5
1963
330
A
100
AcDbEntity
  8
表題欄
100
AcDbBlockReference
 66
     1
  2
表題欄(定義)
 10
1421.384392108928
 20
240.349701250074
 30
0.0
 41
4.0
 42
4.0
 43
4.0
  0
ATTRIB
  5
1964
102
{ACAD_XDICTIONARY
360
1965
102
}
330
1963
100
AcDbEntity
  8
表題欄
100
AcDbText
 10
1518.100000000006
 20
75.999909272054
 30
0.0
 40
6.0
  1

  7
ＭＳ ゴシック
100
AcDbAttribute
  2
REMARKS
 70
     0
280
     0
1001
AcadAnnotative
1000
AnnotativeData
1002
{
1070
     1
1070
     0
1002
}
  0
ATTRIB
  5
1968
102
{ACAD_XDICTIONARY
360
1969
102
}
330
1963
100
AcDbEntity
  8
表題欄
100
AcDbText
 10
1456.505610854077
 20
75.999909272054
 30
0.0
 40
6.0
  1
A3-1:4
  7
ＭＳ ゴシック
 72
     1
 11
1468.210000000006
 21
78.999909272054
 31
0.0
100
AcDbAttribute
  2
SCALE
 70
     0
 74
     2
280
     0
1001
AcadAnnotative
1000
AnnotativeData
1002
{
1070
     1
1070
     0
1002
}
  0
ATTRIB
  5
196C
102
{ACAD_XDICTIONARY
360
196D
102
}
330
1963
100
AcDbEntity
  8
表題欄
100
AcDbText
 10
1454.5
 20
108.999909272054
 30
0.0
 40
6.0
  1
HDFCLT-Nk02
  7
ＭＳ ゴシック
100
AcDbAttribute
  2
DRAWING　NO.
 70
     0
280
     0
1001
AcadAnnotative
1000
AnnotativeData
1002
{
1070
     1
1070
     0
1002
}
  0
ATTRIB
  5
1970
102
{ACAD_XDICTIONARY
360
1971
102
}
330
1963
100
AcDbEntity
  8
表題欄
100
AcDbText
 10
1454.5
 20
138.999909272054
 30
0.0
 40
6.0
  1
軒先納まり(2)
  7
ＭＳ ゴシック
100
AcDbAttribute
  2
POSITION
 70
     0
280
     0
1001
AcadAnnotative
1000
AnnotativeData
1002
{
1070
     1
1070
     0
1002
}
  0
ATTRIB
  5
1974
102
{ACAD_XDICTIONARY
360
1975
102
}
330
1963
100
AcDbEntity
  8
表題欄
100
AcDbText
 10
1454.5
 20
168.999909272054
 30
0.0
 40
6.0
  1
木造建築物 外断熱機械的固定 HDF-CLT工法
  7
ＭＳ ゴシック
100
AcDbAttribute
  2
NAME
 70
     0
280
     0
1001
AcadAnnotative
1000
AnnotativeData
1002
{
1070
     1
1070
     0
1002
}
  0
ATTRIB
  5
1978
102
{ACAD_XDICTIONARY
360
1979
102
}
330
1963
100
AcDbEntity
  8
表題欄
100
AcDbText
 10
1398.996342378392
 20
45.999909272054
 30
0.0
 40
6.0
  1
小 山
  7
ＭＳ ゴシック
 72
     1
 11
1408.75
 21
48.999909272054
 31
0.0
100
AcDbAttribute
  2
DRAWING
 70
     0
 74
     2
280
     0
1001
AcadAnnotative
1000
AnnotativeData
1002
{
1070
     1
1070
     0
1002
}
  0
ATTRIB
  5
197C
330
1963
100
AcDbEntity
  8
表題欄
100
AcDbText
 10
1408.75
 20
75.999909272054
 30
0.0
 40
6.0
  1

  7
ＭＳ ゴシック
 72
     1
 11
1408.75
 21
78.999909272054
 31
0.0
100
AcDbAttribute
  2
DESIGNED
 70
     0
 74
     2
280
     0
  0
ATTRIB
  5
197D
102
{ACAD_XDICTIONARY
360
197E
102
}
330
1963
100
AcDbEntity
  8
表題欄
100
AcDbText
 10
1408.75
 20
105.999909272054
 30
0.0
 40
6.0
  1

  7
ＭＳ ゴシック
 72
     1
 11
1408.75
 21
108.999909272054
 31
0.0
100
AcDbAttribute
  2
CHECKED
 70
     0
 74
     2
280
     0
1001
AcadAnnotative
1000
AnnotativeData
1002
{
1070
     1
1070
     0
1002
}
  0
ATTRIB
  5
1981
102
{ACAD_XDICTIONARY
360
1982
102
}
330
1963
100
AcDbEntity
  8
表題欄
100
AcDbText
 10
1393.144147805427
 20
135.999909272054
 30
0.0
 40
6.0
  1
20220204
  7
ＭＳ ゴシック
 72
     1
 11
1408.75
 21
138.999909272054
 31
0.0
100
AcDbAttribute
  2
ISSUE
 70
     0
 74
     2
280
     0
1001
AcadAnnotative
1000
AnnotativeData
1002
{
1070
     1
1070
     0
1002
}
  0
ATTRIB
  5
1985
102
{ACAD_XDICTIONARY
360
1986
102
}
330
1963
100
AcDbEntity
  8
表題欄
100
AcDbText
 10
1393.144147805427
 20
165.999909272054
 30
0.0
 40
6.0
  1
20220201
  7
ＭＳ ゴシック
 72
     1
 11
1408.75
 21
168.999909272054
 31
0.0
100
AcDbAttribute
  2
DATE
 70
     0
 74
     2
280
     0
1001
AcadAnnotative
1000
AnnotativeData
1002
{
1070
     1
1070
     0
1002
}
  0
SEQEND
  5
1989
330
1963
100
AcDbEntity
  8
表題欄
  0
TEXT
  5
198A
330
A
100
AcDbEntity
  8
文字
100
AcDbText
 10
617.304039486786
 20
319.108798849325
 30
0.0
 40
20.0
  1
S=1.5:1
  7
基本スタイル
100
AcDbText
1001
AcadAnnotative
1000
AnnotativeData
1002
{
1070
     1
1070
     0
1002
}
  0
HATCH
  5
198B
330
A
100
AcDbEntity
  8
野地板
100
AcDbHatch
 10
0.0
 20
0.0
 30
0.0
210
0.0
220
0.0
230
1.0
  2
WOOD1
 70
     0
 71
     0
 91
        1
 92
        3
 72
     0
 73
     1
 93
        4
 10
616.6352034586016
 20
690.0000000047985
 10
616.6352034586016
 20
642.0000000024011
 10
1456.635203500598
 20
642.0000000024011
 10
1456.635203500598
 20
690.0000000047985
 97
        0
 75
     0
 76
     1
 52
337.5
 41
53.333333336
 77
     0
 78
     3
 53
14.36989764584397
 43
55918.40352495608
 44
18998.17434290406
 45
-150.9122330641447
 46
-29.8542407663909
 79
     2
 49
21.33333333439995
 49
-192.0000000095995
 53
355.934948822922
 43
55939.06941691293
 44
19003.46887034144
 45
-39.41886005578584
 46
16.32782644839358
 79
     2
 49
26.9847693681194
 49
-107.9390774724776
 53
4.065051177077967
 43
55965.98629823607
 44
19001.55594648356
 45
-39.41886005578583
 46
16.32782644839358
 79
     2
 49
47.70278352238058
 49
-47.70278352238059
 98
        0
1001
ACAD
1010
0.0
1020
0.0
1030
0.0
1001
HATCHBACKGROUNDCOLOR
1071
-939524096
1000

1000

  0
LINE
  5
198C
330
A
100
AcDbEntity
  8
野地板
100
AcDbLine
 10
616.635203458602
 20
690.000000004798
 30
0.0
 11
1456.635203500598
 21
690.000000004798
 31
0.0
  0
LINE
  5
198D
330
A
100
AcDbEntity
  8
野地板
100
AcDbLine
 10
616.635203458602
 20
642.000000002401
 30
0.0
 11
1456.635203500598
 21
642.000000002401
 31
0.0
  0
HATCH
  5
198E
330
A
100
AcDbEntity
  8
野地板
100
AcDbHatch
 10
0.0
 20
0.0
 30
0.0
210
0.0
220
0.0
230
1.0
  2
WOOD4
 70
     0
 71
     0
 91
        1
 92
        3
 72
     0
 73
     1
 93
        5
 10
856.6352034706069
 20
594.0
 10
616.6352034586016
 20
594.0
 10
616.6352034586016
 20
545.9999999975989
 10
1456.635203500598
 20
545.9999999975989
 10
1456.635203500598
 20
594.0
 97
        0
 75
     0
 76
     1
 52
0.0
 41
213.333333344
 77
     0
 78
    92
 53
349.6952
 43
56068.79520623121
 44
19371.38666760553
 45
2816.000451098748
 46
-469.3309282750273
 79
     2
 49
52.47287466929031
 49
-5194.832896259742
 53
0.0
 43
56120.42187290046
 44
19362.00000093839
 45
469.3333333568
 46
469.3333333568
 79
     2
 49
51.626666669248
 49
-417.7066666875519
 53
18.4349
 43
56172.0485395697
 44
19362.00000093839
 45
938.666870682563
 46
469.3325839359909
 79
     2
 49
44.52471466889274
 49
-1439.637290738644
 53
172.875
 43
56214.28853957182
 44
19376.08000093911
 45
3285.333511771653
 46
-469.3325269923677
 79
     2
 49
37.83906133522529
 49
-3746.047360187303
 53
174.8056
 43
56176.74187290328
 44
19380.77333427267
 45
4693.333648042402
 46
-469.3310921490755
 79
     2
 49
51.83974400259197
 49
-5132.116352256605
 53
194.0362
 43
56125.11520623403
 44
19385.46666760624
 45
-1408.000256321584
 46
-469.3324216116776
 79
     2
 49
58.05324800290251
 49
-1877.057365427182
 53
9.4623
 43
56106.34187289976
 44
19371.38666760553
 45
2346.667029904998
 46
469.3324600224763
 79
     2
 49
28.54860800142743
 49
-2826.294826807981
 53
353.6598000000001
 43
56134.50187290116
 44
19376.08000093911
 45
-3754.666386477681
 46
469.3340744152131
 79
     2
 49
42.50001066879167
 49
-4207.494016210375
 53
185.7106
 43
56176.74187290328
 44
19371.38666760553
 45
-4223.999729638586
 46
-469.3339503735131
 79
     2
 49
47.16753066902505
 49
-4669.574272233479
 53
168.6901
 43
56129.8085395676
 44
19366.69333427197
 45
1877.33368647426
 46
-469.3322220513136
 79
     2
 49
23.93130666786323
 49
-2369.208277451794
 53
354.8056
 43
56026.5552062291
 44
19366.69333427197
 45
-4693.333648042402
 46
469.3310921490739
 79
     2
 49
51.83974400259183
 49
-5132.116352256592
 53
348.6901
 43
56078.18187289835
 44
19362.00000093839
 45
-1877.33368647426
 46
469.3322220513147
 79
     2
 49
47.86261333572647
 49
-2345.276970783931
 53
0.0
 43
56125.11520623403
 44
19352.61333427127
 45
469.3333333568
 46
469.3333333568
 79
     2
 49
56.320000002816
 49
-413.013333353984
 53
20.55600000000001
 43
56181.43520623684
 44
19352.61333427127
 45
2346.667532489244
 46
938.6647877007983
 79
     2
 49
40.09984000200498
 49
-3969.886037531826
 53
3.814100000000014
 43
56218.98187290539
 44
19366.69333427197
 45
6570.666357914
 46
469.3362075417912
 79
     2
 49
70.55628800352781
 49
-6985.07063501592
 53
354.8056
 43
56289.38187290891
 44
19371.38666760553
 45
-4693.333648042402
 46
469.3310921490739
 79
     2
 49
51.83974400259183
 49
-5132.116352256592
 53
0.0
 43
56341.00853957816
 44
19366.69333427197
 45
469.3333333568
 46
469.3333333568
 79
     2
 49
51.626666669248
 49
-417.7066666875519
 53
5.194400000000002
 43
55923.3018728906
 44
19366.69333427197
 45
4693.333648042402
 46
469.3310921490748
 79
     2
 49
51.83974400259183
 49
-5132.116352256592
 53
354.8056
 43
55974.92853955986
 44
19371.38666760553
 45
-4693.333648042402
 46
469.3310921490739
 79
     2
 49
51.83974400259183
 49
-5132.116352256592
 53
0.0
 43
55923.3018728906
 44
19376.08000093911
 45
469.3333333568
 46
469.3333333568
 79
     2
 49
28.160000001408
 49
-441.1733333553919
 53
5.194400000000002
 43
55951.461872892
 44
19376.08000093911
 45
4693.333648042402
 46
469.3310921490748
 79
     2
 49
51.83974400259183
 49
-5132.116352256592
 53
0.0
 43
56003.08853956126
 44
19380.77333427267
 45
469.3333333568
 46
469.3333333568
 79
     2
 49
46.93333333568
 49
-422.40000002112
 53
10.3048
 43
56050.02187289694
 44
19380.77333427267
 45
-2816.000451098749
 46
-469.3309282750258
 79
     2
 49
52.47287466929031
 49
-5194.832896259742
 53
5.194400000000002
 43
56101.64853956619
 44
19390.16000093981
 45
4693.333648042402
 46
469.3310921490748
 79
     2
 49
51.83974400259183
 49
-5132.116352256592
 53
354.8056
 43
56153.27520623543
 44
19394.85333427338
 45
-4693.333648042402
 46
469.3310921490739
 79
     2
 49
51.83974400259183
 49
-5132.116352256592
 53
354.8056
 43
56204.90187290468
 44
19390.16000093981
 45
-4693.333648042402
 46
469.3310921490739
 79
     2
 49
51.83974400259183
 49
-5132.116352256592
 53
351.8699
 43
56256.52853957393
 44
19385.46666760624
 45
-2815.999895226552
 46
469.3330310195644
 79
     2
 49
66.373589336652
 49
-3252.313856162616
 53
0.0
 43
56322.23520624388
 44
19376.08000093911
 45
469.3333333568
 46
469.3333333568
 79
     2
 49
70.40000000352
 49
-398.93333335328
 53
347.4712
 43
56303.46187290961
 44
19094.48000092502
 45
2346.666817162669
 46
-469.3331470525358
 79
     2
 49
43.27018666883017
 49
-4283.769130880854
 53
354.2894
 43
56345.70187291173
 44
19085.09333425789
 45
-4223.999729638586
 46
469.3339503735127
 79
     2
 49
47.16753066902505
 49
-4669.574272233479
 53
8.1301
 43
56303.46187290961
 44
19094.48000092502
 45
2815.999895226553
 46
469.3330310195617
 79
     2
 49
33.18702933499269
 49
-3285.500885497609
 53
9.4623
 43
56336.31520624459
 44
19099.17333425859
 45
2346.667029904998
 46
469.3324600224763
 79
     2
 49
57.09674666952151
 49
-2797.746218806554
 53
0.0
 43
55923.3018728906
 44
19108.56000092573
 45
469.3333333568
 46
469.3333333568
 79
     2
 49
56.320000002816
 49
-413.013333353984
 53
350.5377
 43
55979.62187289342
 44
19108.56000092573
 45
-2346.667029904997
 46
469.3324600224772
 79
     2
 49
28.54860800142736
 49
-2826.294826807972
 53
201.8014
 43
56007.78187289483
 44
19103.86666759216
 45
1408.000128203455
 46
469.3332913517712
 79
     2
 49
25.27453866793039
 49
-2502.162901458441
 53
192.9946
 43
55984.31520622699
 44
19094.48000092502
 45
4224.000360541583
 46
938.6655297903706
 79
     2
 49
62.61704533646419
 49
-6199.070592309954
 53
352.8749999999999
 43
56355.08853957886
 44
19094.48000092502
 45
-3285.333511771653
 46
469.332526992371
 79
     2
 49
37.83906133522529
 49
-3746.047360187303
 53
7.124999999999997
 43
56355.08853957886
 44
19094.48000092502
 45
3285.333511771653
 46
469.3325269923679
 79
     2
 49
37.83906133522529
 49
-3746.047360187303
 53
0.0
 43
55923.3018728906
 44
19099.17333425859
 45
469.3333333568
 46
469.3333333568
 79
     2
 49
37.54666666854399
 49
-431.786666688256
 53
194.0362
 43
55960.84853955916
 44
19099.17333425859
 45
-1408.000256321584
 46
-469.3324216116776
 79
     2
 49
38.70216533526835
 49
-1896.408917428149
 53
356.6335
 43
56026.5552062291
 44
19113.25333425929
 45
-7509.333015486109
 46
469.3384788245111
 79
     2
 49
79.9246506706629
 49
-7912.534315062292
 53
357.7094
 43
56106.34187289976
 44
19108.56000092573
 45
-11264.00006118968
 46
469.3313401571976
 79
     2
 49
117.4272000058714
 49
-11625.2890459146
 53
3.179800000000001
 43
56223.67520623896
 44
19103.86666759216
 45
7978.666902999229
 46
469.3291292219479
 79
     2
 49
84.61047467089719
 49
-8376.416811085488
 53
9.4623
 43
56308.15520624318
 44
19108.56000092573
 45
2346.667029904998
 46
469.3324600224763
 79
     2
 49
85.64535467094892
 49
-2769.19808013846
 53
10.3048
 43
55923.3018728906
 44
19066.32000092362
 45
-2816.000451098749
 46
-469.3309282750258
 79
     2
 49
52.47287466929031
 49
-5194.832896259742
 53
15.9454
 43
55974.92853955986
 44
19075.70666759075
 45
-1877.333392869276
 46
-469.3332813999011
 79
     2
 49
68.33587200341678
 49
-3348.462421500755
 53
0.0
 43
56040.63520622981
 44
19094.48000092502
 45
469.3333333568
 46
469.3333333568
 79
     2
 49
61.01333333638399
 49
-408.320000020416
 53
351.8699
 43
56101.64853956619
 44
19094.48000092502
 45
-2815.999895226552
 46
469.3330310195644
 79
     2
 49
66.373589336652
 49
-3252.313856162616
 53
3.5763
 43
56167.35520623614
 44
19085.09333425789
 45
7040.000307452804
 46
469.3289766911668
 79
     2
 49
75.23976533709533
 49
-7448.74568570577
 53
351.2538000000001
 43
56242.44853957323
 44
19089.78666759146
 45
3285.333022027513
 46
-469.3353031757979
 79
     2
 49
61.7309440030864
 49
-6111.385045638885
 53
345.9638
 43
56303.46187290961
 44
19080.40000092432
 45
-1408.000256321585
 46
469.3324216116775
 79
     2
 49
58.05324800290266
 49
-1877.057365427187
 53
0.0
 43
56359.78187291243
 44
19066.32000092362
 45
469.3333333568
 46
469.3333333568
 79
     2
 49
32.853333334976
 49
-436.4800000218239
 53
174.8056
 43
56026.5552062291
 44
19113.25333425929
 45
4693.333648042402
 46
-469.3310921490755
 79
     2
 49
103.6790186718506
 49
-5080.277077587346
 53
355.2364000000001
 43
55923.3018728906
 44
19141.41333426071
 45
-5162.667111064126
 46
469.3293593524808
 79
     2
 49
113.0304853389848
 49
-5538.49143494359
 53
0.0
 43
56035.94187289623
 44
19132.02666759357
 45
469.3333333568
 46
469.3333333568
 79
     2
 49
107.946666672064
 49
-361.3866666847359
 53
4.0856
 43
56143.8885395683
 44
19132.02666759357
 45
6101.333403576027
 46
469.3315181416917
 79
     2
 49
131.747968006587
 49
-6455.658880322764
 53
0.0
 43
56275.30187290821
 44
19141.41333426071
 45
469.3333333568
 46
469.3333333568
 79
     2
 49
117.3333333392
 49
-352.0000000176
 53
7.124999999999997
 43
55923.3018728906
 44
19042.85333425578
 45
3285.333511771653
 46
469.3325269923679
 79
     2
 49
113.5167146723425
 49
-3670.369706850186
 53
6.340200000000002
 43
56035.94187289623
 44
19056.93333425648
 45
3754.666386477681
 46
469.3340744152163
 79
     2
 49
85.00002133758333
 49
-4164.994005541582
 53
357.5104
 43
56120.42187290046
 44
19066.32000092362
 45
-10325.33308965802
 46
469.3417181234222
 79
     2
 49
108.0485120054024
 49
-10696.81629920151
 53
353.4802
 43
56228.36853957253
 44
19061.62666759004
 45
-12202.66656912681
 46
1407.999777251456
 79
     2
 49
165.3358080082664
 49
-16368.25907281837
 53
3.0128
 43
55923.3018728906
 44
19347.92000093769
 45
8448.000005912374
 46
469.3352599133817
 79
     2
 49
89.29676800446454
 49
-8840.379093775326
 53
351.8699
 43
56012.4752062284
 44
19352.61333427127
 45
-2815.999895226552
 46
469.3330310195644
 79
     2
 49
99.56061867164469
 49
-3219.127296160956
 53
357.6141000000001
 43
56111.03520623333
 44
19338.53333427056
 45
-10794.66691307813
 46
469.3252470064981
 79
     2
 49
112.7376213389699
 49
-11161.03577655801
 53
10.6197
 43
56223.67520623896
 44
19333.84000093699
 45
-5162.665918158926
 46
-938.6704603904893
 79
     2
 49
76.40183467048675
 49
-7563.791019044857
 53
0.0
 43
56298.76853957604
 44
19347.92000093769
 45
469.3333333568
 46
469.3333333568
 79
     2
 49
93.86666667136001
 49
-375.46666668544
 53
356.8202000000001
 43
55923.3018728906
 44
19404.24000094051
 45
-7978.666902999229
 46
469.3291292219467
 79
     2
 49
84.61047467089699
 49
-8376.416811085463
 53
6.009
 43
56007.78187289483
 44
19399.54666760694
 45
-4693.3332166599
 46
-469.3330130282783
 79
     2
 49
89.66613333781663
 49
-8876.934528443846
 53
6.7098
 43
56096.95520623262
 44
19408.93333427408
 45
-4224.000468489146
 46
-469.3304616206657
 79
     2
 49
80.33672533735017
 49
-7953.355520397668
 53
354.2894
 43
56176.74187290328
 44
19418.32000094122
 45
-4223.999729638586
 46
469.3339503735127
 79
     2
 49
94.3350613380501
 49
-4622.406741564454
 53
347.9052
 43
56270.60853957463
 44
19408.93333427408
 45
-4223.999343901991
 46
938.669826963905
 79
     2
 49
67.1982080033599
 49
-6652.632448332632
 53
9.4623
 43
56336.31520624459
 44
19394.85333427338
 45
2346.667029904998
 46
469.3324600224763
 79
     2
 49
57.09674666952151
 49
-2797.746218806554
 53
3.814100000000014
 43
55923.3018728906
 44
19315.06666760272
 45
6570.666357914
 46
469.3362075417912
 79
     2
 49
70.55628800352781
 49
-6985.07063501592
 53
347.1957
 43
55993.70187289413
 44
19319.76000093629
 45
-6101.332323109185
 46
1408.003467351642
 79
     2
 49
105.8862933386274
 49
-10482.75618185744
 53
0.0
 43
56096.95520623262
 44
19296.29333426844
 45
469.3333333568
 46
469.3333333568
 79
     2
 49
117.3333333392
 49
-352.0000000176
 53
5.440299999999999
 43
56214.28853957182
 44
19296.29333426844
 45
-5162.666813454494
 46
-469.3302222593686
 79
     2
 49
99.00586667161667
 49
-9801.59159515672
 53
6.7098
 43
56312.84853957675
 44
19305.68000093558
 45
-4224.000468489146
 46
-469.3304616206657
 79
     2
 49
80.33672533735017
 49
-7953.355520397668
 53
0.0
 43
55923.3018728906
 44
19437.09333427549
 45
469.3333333568
 46
469.3333333568
 79
     2
 49
79.786666670656
 49
-389.546666686144
 53
8.1301
 43
56003.08853956126
 44
19437.09333427549
 45
2815.999895226553
 46
469.3330310195617
 79
     2
 49
132.7476480066374
 49
-3185.940266825963
 53
357.6141000000001
 43
56134.50187290116
 44
19455.86666760976
 45
-10794.66691307813
 46
469.3252470064981
 79
     2
 49
112.7376213389699
 49
-11161.03577655801
 53
354.4725
 43
56247.1418729068
 44
19451.17333427619
 45
9856.000807464405
 46
-938.6598049030172
 79
     2
 49
146.1729280073086
 49
-14471.13066739023
 53
6.8428
 43
55923.3018728906
 44
19010.00000092079
 45
-7978.666369263531
 46
-938.670420406285
 79
     2
 49
118.1753173392418
 49
-11699.3362352516
 53
0.0
 43
56040.63520622981
 44
19024.08000092151
 45
469.3333333568
 46
469.3333333568
 79
     2
 49
131.413333339904
 49
-337.920000016896
 53
356.3478
 43
56172.0485395697
 44
19024.08000092151
 45
-14549.33377627406
 46
938.6607054896085
 79
     2
 49
221.0353493443851
 49
-21882.52164376079
 53
0.0
 43
55923.3018728906
 44
19174.26666759568
 45
469.3333333568
 46
469.3333333568
 79
     2
 49
112.640000005632
 49
-356.693333351168
 53
4.7636
 43
56035.94187289623
 44
19174.26666759568
 45
5162.667111064125
 46
469.3293593524846
 79
     2
 49
113.0304853389845
 49
-5538.491434943571
 53
358.1524
 43
56148.58187290186
 44
19183.65333426282
 45
-14080.00021861961
 46
469.3306768229969
 79
     2
 49
145.5688960072784
 49
-14411.3324380539
 53
357.2737
 43
56294.07520624248
 44
19178.96000092924
 45
-9386.66680557688
 46
469.3314643434285
 79
     2
 49
98.67170133826691
 49
-9768.49655515509
 53
354.8056
 43
55923.3018728906
 44
19249.36000093277
 45
-4693.333648042402
 46
469.3310921490739
 79
     2
 49
103.6790186718503
 49
-5080.277077587334
 53
0.0
 43
56026.5552062291
 44
19239.97333426563
 45
469.3333333568
 46
469.3333333568
 79
     2
 49
150.186666674176
 49
-319.146666682624
 53
1.9092
 43
56176.74187290328
 44
19239.97333426563
 45
13610.66621283484
 46
469.3447105028405
 79
     2
 49
140.8783786737106
 49
-13946.94165403068
 53
3.5763
 43
56317.54187291032
 44
19244.66666759919
 45
7040.000307452804
 46
469.3289766911668
 79
     2
 49
75.23976533709533
 49
-7448.74568570577
 98
        0
1001
ACAD
1010
0.0
1020
0.0
1030
0.0
1001
HATCHBACKGROUNDCOLOR
1071
-939524096
1000

1000

  0
LINE
  5
198F
330
A
100
AcDbEntity
  8
野地板
100
AcDbLine
 10
616.635203458602
 20
594.0
 30
0.0
 11
1456.635203500598
 21
594.0
 31
0.0
  0
LINE
  5
1990
330
A
100
AcDbEntity
  8
野地板
100
AcDbLine
 10
616.635203458602
 20
545.999999997599
 30
0.0
 11
1456.635203500598
 21
545.999999997599
 31
0.0
  0
HATCH
  5
1991
330
A
100
AcDbEntity
  8
野地板
100
AcDbHatch
 10
0.0
 20
0.0
 30
0.0
210
0.0
220
0.0
230
1.0
  2
WOOD1
 70
     0
 71
     0
 91
        1
 92
        3
 72
     0
 73
     1
 93
        5
 10
856.6352034706069
 20
497.9999999951979
 10
616.6352034586016
 20
497.9999999951979
 10
616.6352034586016
 20
449.9999999928004
 10
1456.635203500598
 20
449.9999999928004
 10
1456.635203500598
 20
497.9999999951979
 97
        0
 75
     0
 76
     1
 52
158.0
 41
53.333333336
 77
     0
 78
     3
 53
194.869897645844
 43
55928.09683728658
 44
19021.86795425984
 45
150.6459626969056
 46
31.17004496735423
 79
     2
 49
21.3333333344
 49
-192.0000000096
 53
176.434948822922
 43
55907.47793510521
 44
19016.39328678208
 45
39.55984446349425
 46
-15.98321465321142
 79
     2
 49
26.9847693681194
 49
-107.9390774724776
 53
184.565051177078
 43
55880.54538549647
 44
19018.07124668131
 45
39.55984446349425
 46
-15.98321465321141
 79
     2
 49
47.70278352238064
 49
-47.70278352238066
 98
        0
1001
ACAD
1010
0.0
1020
0.0
1030
0.0
1001
HATCHBACKGROUNDCOLOR
1071
-939524096
1000

1000

  0
LINE
  5
1992
330
A
100
AcDbEntity
  8
野地板
100
AcDbLine
 10
616.635203458602
 20
497.999999995198
 30
0.0
 11
1456.635203500598
 21
497.999999995198
 31
0.0
  0
LINE
  5
1993
330
A
100
AcDbEntity
  8
野地板
100
AcDbLine
 10
616.635203458602
 20
449.9999999928
 30
0.0
 11
1456.635203500598
 21
449.9999999928
 31
0.0
  0
LINE
  5
1994
330
A
100
AcDbEntity
  8
野地板
100
AcDbLine
 10
616.635203458602
 20
690.000000004798
 30
0.0
 11
616.635203458602
 21
449.9999999928
 31
0.0
  0
LINE
  5
1995
330
A
100
AcDbEntity
  8
野地板
100
AcDbLine
 10
856.635203470607
 20
642.000000002401
 30
0.0
 11
856.635203470607
 21
594.0
 31
0.0
  0
LINE
  5
1996
330
A
100
AcDbEntity
  8
野地板
100
AcDbLine
 10
856.635203470607
 20
545.999999997599
 30
0.0
 11
856.635203470607
 21
497.999999995198
 31
0.0
  0
LINE
  5
1997
330
A
100
AcDbEntity
  8
野地板
100
AcDbLine
 10
1096.635203482612
 20
642.000000002401
 30
0.0
 11
1096.635203482612
 21
594.0
 31
0.0
  0
LINE
  5
1998
330
A
100
AcDbEntity
  8
野地板
100
AcDbLine
 10
1096.635203482612
 20
545.999999997599
 30
0.0
 11
1096.635203482612
 21
497.999999995198
 31
0.0
  0
LINE
  5
1999
330
A
100
AcDbEntity
  8
野地板
100
AcDbLine
 10
1336.635203494603
 20
642.000000002401
 30
0.0
 11
1336.635203494603
 21
594.0
 31
0.0
  0
LINE
  5
199A
330
A
100
AcDbEntity
  8
野地板
100
AcDbLine
 10
1336.635203494603
 20
545.999999997599
 30
0.0
 11
1336.635203494603
 21
497.999999995198
 31
0.0
  0
LWPOLYLINE
  5
199B
330
A
100
AcDbEntity
  8
ブチルﾃｰﾌﾟ
100
AcDbPolyline
 90
        4
 70
     1
 43
0.0
 10
636.412981236921
 20
775.333333342398
 10
743.079647908919
 20
775.333333342398
 10
743.079647908919
 20
786.888888889644
 10
636.412981236921
 20
786.888888889644
  0
HATCH
  5
199C
102
{ACAD_XDICTIONARY
360
199D
102
}
330
A
100
AcDbEntity
  8
ブチルﾃｰﾌﾟ
 62
     4
100
AcDbHatch
 10
0.0
 20
0.0
 30
0.0
210
0.0
220
0.0
230
1.0
  2
ANSI31
 70
     0
 71
     0
 91
        1
 92
        7
 72
     0
 73
     1
 93
        4
 10
636.412981236921
 20
775.333333342398
 10
743.0796479089186
 20
775.333333342398
 10
743.0796479089186
 20
786.8888888896436
 10
636.412981236921
 20
786.8888888896436
 97
        0
 75
     0
 76
     1
 52
0.0
 41
26.666666668
 77
     0
 78
     1
 53
45.0
 43
104916.2043828334
 44
35840.28791408878
 45
-2.35702260407301
 46
2.35702260407301
 79
     0
 47
0.0
 98
        1
 10
676.4241096844635
 20
778.9752387172521
1001
ACAD
1010
0.0
1020
0.0
1030
0.0
1001
AcadAnnotative
1000
AnnotativeData
1002
{
1070
     1
1070
     0
1002
}
1001
HATCHBACKGROUNDCOLOR
1071
-939524096
1000

1000

  0
LINE
  5
19A0
330
A
100
AcDbEntity
  8
実線
100
AcDbLine
 10
692.41298123973
 20
789.555555556442
 30
0.0
 11
745.746314575721
 21
789.555555556442
 31
0.0
  0
LINE
  5
19A1
330
A
100
AcDbEntity
  8
実線
100
AcDbLine
 10
745.746314575721
 20
789.555555556442
 30
0.0
 11
745.746314575721
 21
775.333333342398
 31
0.0
  0
LINE
  5
19A2
330
A
100
AcDbEntity
  8
実線
100
AcDbLine
 10
745.746314575721
 20
775.333333342398
 30
0.0
 11
1456.635203500598
 21
775.333333342398
 31
0.0
  0
LINE
  5
19A3
330
A
100
AcDbEntity
  8
実線
100
AcDbLine
 10
692.41298123973
 20
791.155555556525
 30
0.0
 11
747.346314575814
 21
791.155555556525
 31
0.0
  0
LINE
  5
19A4
330
A
100
AcDbEntity
  8
実線
100
AcDbLine
 10
747.346314575814
 20
791.155555556525
 30
0.0
 11
747.346314575814
 21
776.93333334248
 31
0.0
  0
LINE
  5
19A5
330
A
100
AcDbEntity
  8
実線
100
AcDbLine
 10
747.346314575814
 20
776.93333334248
 30
0.0
 11
1456.635203500598
 21
776.93333334248
 31
0.0
  0
LINE
  5
19A6
330
A
100
AcDbEntity
  8
実線
100
AcDbLine
 10
692.41298123973
 20
791.155555556525
 30
0.0
 11
692.41298123973
 21
789.555555556442
 31
0.0
  0
HATCH
  5
19A7
330
A
100
AcDbEntity
  8
部材(積層鋼板)
 62
     4
100
AcDbHatch
 10
0.0
 20
0.0
 30
0.0
210
0.0
220
0.0
230
1.0
  2
ANSI31
 70
     0
 71
     0
 91
        2
 92
        7
 72
     0
 73
     1
 93
        4
 10
761.3250917858968
 20
793.8222222233235
 10
761.3250917858968
 20
802.2666666664081
 10
694.6790177412331
 20
802.2666666664081
 10
694.6790177412331
 20
793.8222222233235
 97
        0
 92
        7
 72
     1
 73
     1
 93
       13
 10
574.6584251098975
 20
420.5444178799808
 42
0.7677140343090691
 10
590.1972024917923
 20
416.3727011022529
 42
0.0
 10
594.8574256788561
 20
424.4444444368528
 42
0.0
 10
587.5443222703034
 20
428.6666666583988
 42
0.0
 10
584.0457034416904
 20
422.6068810909492
 42
-0.7673269879849879
 10
583.1028695529676
 20
422.8595126700275
 42
0.0
 10
583.1028695529676
 20
792.4888888899259
 42
-0.414213562373095
 10
584.4362028863688
 20
793.8222222233235
 42
0.0
 10
694.6790177412331
 20
793.8222222233235
 42
0.0
 10
694.6790177412331
 20
802.2666666664081
 42
0.0
 10
581.3250917768892
 20
802.2666666664081
 42
0.414213562373095
 10
574.6584251098975
 20
795.5999999994092
 42
0.0
 10
574.6584251098975
 20
420.5281921441092
 42
0.0
 97
        0
 75
     0
 76
     1
 52
0.0
 41
53.333333336
 77
     1
 78
     1
 53
45.0
 43
104916.2043828334
 44
35840.28791408878
 45
-4.714045208146019
 46
4.714045208146019
 79
     0
 47
0.0
 98
        2
 10
731.3018701310066
 20
799.3333333435985
 10
664.6352034610027
 20
799.3333333435985
1001
ACAD
1010
0.0
1020
0.0
1030
0.0
1001
HATCHBACKGROUNDCOLOR
1071
-939524096
1000

1000

  0
LWPOLYLINE
  5
19A8
330
A
100
AcDbEntity
  8
部材(積層鋼板)
100
AcDbPolyline
 90
       13
 70
     0
 43
0.0
 10
574.658425109898
 20
420.544417879981
 42
0.767714034309
 10
590.197202491792
 20
416.372701102253
 10
594.857425678856
 20
424.444444436853
 10
587.544322270303
 20
428.666666658399
 10
584.04570344169
 20
422.606881090949
 42
-0.767326987984
 10
583.102869552968
 20
422.859512670024
 10
583.102869552968
 20
792.488888889926
 42
-0.414213562373
 10
584.436202886369
 20
793.822222223323
 10
761.325091785897
 20
793.822222223323
 10
761.325091785897
 20
802.266666666408
 10
581.325091776889
 20
802.266666666408
 42
0.414213562373
 10
574.658425109898
 20
795.599999999409
 10
574.658425109898
 20
420.528192144109
  0
LINE
  5
19A9
330
A
100
AcDbEntity
  8
IBｼｰﾄ
100
AcDbLine
 10
602.658425111294
 20
804.933333333211
 30
0.0
 11
761.325091785897
 21
804.933333333211
 31
0.0
  0
LINE
  5
19AA
330
A
100
AcDbEntity
  8
IBｼｰﾄ
100
AcDbLine
 10
761.325091785897
 20
804.933333333211
 30
0.0
 11
805.203712228016
 21
779.600000009279
 31
0.0
  0
LINE
  5
19AB
330
A
100
AcDbEntity
  8
IBｼｰﾄ
100
AcDbLine
 10
805.203712228016
 20
779.600000009279
 30
0.0
 11
1456.635203500598
 21
779.600000009279
 31
0.0
  0
LINE
  5
19AC
330
A
100
AcDbEntity
  8
IBｼｰﾄ
100
AcDbLine
 10
602.658425111294
 20
818.266666667208
 30
0.0
 11
764.897747685129
 21
818.266666667208
 31
0.0
  0
LINE
  5
19AD
330
A
100
AcDbEntity
  8
IBｼｰﾄ
100
AcDbLine
 10
764.897747685129
 20
818.266666667208
 30
0.0
 11
808.776368127277
 21
792.933333343281
 31
0.0
  0
LINE
  5
19AE
330
A
100
AcDbEntity
  8
IBｼｰﾄ
100
AcDbLine
 10
808.776368127277
 20
792.933333343281
 30
0.0
 11
1456.635203500598
 21
792.933333343281
 31
0.0
  0
LINE
  5
19AF
330
A
100
AcDbEntity
  8
断熱材
100
AcDbLine
 10
1456.635203500598
 20
772.666666675599
 30
0.0
 11
616.635203458602
 21
772.666666675599
 31
0.0
  0
ARC
  5
19B0
330
A
100
AcDbEntity
  8
断熱材
 62
     4
100
AcDbCircle
 10
629.378438432352
 20
763.395380547179
 30
0.0
 40
6.03546677034055
100
AcDbArc
 50
5.351354122451
 51
174.64864587748
  0
LINE
  5
19B1
330
A
100
AcDbEntity
  8
断熱材
 62
     4
370
    -1
100
AcDbLine
 10
635.387599660724
 20
763.958266385998
 30
0.0
 11
642.322256650616
 21
701.375066960121
 31
0.0
  0
LINE
  5
19B2
330
A
100
AcDbEntity
  8
断熱材
 62
     4
370
    -1
100
AcDbLine
 10
623.369277204038
 20
763.958266385998
 30
0.0
 11
616.635203458602
 21
703.185270580983
 31
0.0
  0
ARC
  5
19B3
330
A
100
AcDbEntity
  8
断熱材
 62
     4
100
AcDbCircle
 10
648.331417878973
 20
701.937952798944
 30
0.0
 40
6.03546677034055
100
AcDbArc
 50
185.351354122555
 51
354.648645877445
  0
ARC
  5
19B4
330
A
100
AcDbEntity
  8
断熱材
 62
     4
100
AcDbCircle
 10
667.284397325566
 20
763.395380547179
 30
0.0
 40
6.03546677034055
100
AcDbArc
 50
5.351354122451
 51
174.64864587748
  0
LINE
  5
19B5
330
A
100
AcDbEntity
  8
断熱材
 62
     4
370
    -1
100
AcDbLine
 10
673.293558553909
 20
763.958266385998
 30
0.0
 11
680.22821554383
 21
701.375066960121
 31
0.0
  0
LINE
  5
19B6
330
A
100
AcDbEntity
  8
断熱材
 62
     4
370
    -1
100
AcDbLine
 10
661.275236097208
 20
763.958266385998
 30
0.0
 11
654.340579107331
 21
701.375066960121
 31
0.0
  0
ARC
  5
19B7
330
A
100
AcDbEntity
  8
断熱材
 62
     4
100
AcDbCircle
 10
686.237376772173
 20
701.937952798944
 30
0.0
 40
6.03546677034055
100
AcDbArc
 50
185.351354122555
 51
354.648645877445
  0
ARC
  5
19B8
330
A
100
AcDbEntity
  8
断熱材
 62
     4
100
AcDbCircle
 10
705.19035621878
 20
763.395380547179
 30
0.0
 40
6.03546677034055
100
AcDbArc
 50
5.351354122451
 51
174.648645877549
  0
LINE
  5
19B9
330
A
100
AcDbEntity
  8
断熱材
 62
     4
370
    -1
100
AcDbLine
 10
711.199517447138
 20
763.958266385998
 30
0.0
 11
718.134174437029
 21
701.375066960121
 31
0.0
  0
LINE
  5
19BA
330
A
100
AcDbEntity
  8
断熱材
 62
     4
370
    -1
100
AcDbLine
 10
699.181194990437
 20
763.958266385998
 30
0.0
 11
692.246538000516
 21
701.375066960121
 31
0.0
  0
ARC
  5
19BB
330
A
100
AcDbEntity
  8
断熱材
 62
     4
100
AcDbCircle
 10
724.143335665372
 20
701.937952798944
 30
0.0
 40
6.03546677034055
100
AcDbArc
 50
185.351354122555
 51
354.648645877445
  0
LINE
  5
19BC
330
A
100
AcDbEntity
  8
断熱材
 62
     4
370
    -1
100
AcDbLine
 10
737.087153883622
 20
763.958266385998
 30
0.0
 11
730.152496893716
 21
701.375066960121
 31
0.0
  0
ARC
  5
19BD
330
A
100
AcDbEntity
  8
断熱材
 62
     4
100
AcDbCircle
 10
743.096315111965
 20
763.395380547179
 30
0.0
 40
6.03546677034055
100
AcDbArc
 50
5.35135412252
 51
174.648645877549
  0
LINE
  5
19BE
330
A
100
AcDbEntity
  8
断熱材
 62
     4
370
    -1
100
AcDbLine
 10
749.105476340337
 20
763.958266385998
 30
0.0
 11
756.040133330214
 21
701.375066960121
 31
0.0
  0
ARC
  5
19BF
330
A
100
AcDbEntity
  8
断熱材
 62
     4
100
AcDbCircle
 10
762.049294558587
 20
701.937952798944
 30
0.0
 40
6.03546677034055
100
AcDbArc
 50
185.351354122555
 51
354.648645877445
  0
ARC
  5
19C0
330
A
100
AcDbEntity
  8
断熱材
 62
     4
100
AcDbCircle
 10
781.002274005179
 20
763.395380547179
 30
0.0
 40
6.03546677034055
100
AcDbArc
 50
5.35135412252
 51
174.648645877549
  0
LINE
  5
19C1
330
A
100
AcDbEntity
  8
断熱材
 62
     4
370
    -1
100
AcDbLine
 10
787.011435233508
 20
763.958266385998
 30
0.0
 11
793.946092223443
 21
701.375066960121
 31
0.0
  0
LINE
  5
19C2
330
A
100
AcDbEntity
  8
断熱材
 62
     4
370
    -1
100
AcDbLine
 10
774.993112776821
 20
763.958266385998
 30
0.0
 11
768.05845578693
 21
701.375066960121
 31
0.0
  0
ARC
  5
19C3
330
A
100
AcDbEntity
  8
断熱材
 62
     4
100
AcDbCircle
 10
799.955253451772
 20
701.937952798944
 30
0.0
 40
6.03546677034055
100
AcDbArc
 50
185.351354122555
 51
354.648645877445
  0
LINE
  5
19C4
330
A
100
AcDbEntity
  8
断熱材
 62
     4
370
    -1
100
AcDbLine
 10
812.899071670021
 20
763.958266385998
 30
0.0
 11
805.964414680129
 21
701.375066960121
 31
0.0
  0
ARC
  5
19C5
330
A
100
AcDbEntity
  8
断熱材
 62
     4
100
AcDbCircle
 10
818.908232898364
 20
763.395380547179
 30
0.0
 40
6.03546677034055
100
AcDbArc
 50
5.351354122451
 51
174.648645877549
  0
LINE
  5
19C6
330
A
100
AcDbEntity
  8
断熱材
 62
     4
370
    -1
100
AcDbLine
 10
824.917394126751
 20
763.958266385998
 30
0.0
 11
831.852051116613
 21
701.375066960121
 31
0.0
  0
ARC
  5
19C7
330
A
100
AcDbEntity
  8
断熱材
 62
     4
100
AcDbCircle
 10
837.861212344986
 20
701.937952798944
 30
0.0
 40
6.03546677034055
100
AcDbArc
 50
185.351354122555
 51
354.648645877445
  0
ARC
  5
19C8
330
A
100
AcDbEntity
  8
断熱材
 62
     4
100
AcDbCircle
 10
856.814191791607
 20
763.395380547179
 30
0.0
 40
6.03546677034055
100
AcDbArc
 50
5.351354122451
 51
174.64864587748
  0
LINE
  5
19C9
330
A
100
AcDbEntity
  8
断熱材
 62
     4
370
    -1
100
AcDbLine
 10
862.823353019921
 20
763.958266385998
 30
0.0
 11
869.758010009828
 21
701.375066960121
 31
0.0
  0
LINE
  5
19CA
330
A
100
AcDbEntity
  8
断熱材
 62
     4
370
    -1
100
AcDbLine
 10
850.80503056322
 20
763.958266385998
 30
0.0
 11
843.870373573343
 21
701.375066960121
 31
0.0
  0
ARC
  5
19CB
330
A
100
AcDbEntity
  8
断熱材
 62
     4
100
AcDbCircle
 10
875.767171238185
 20
701.937952798944
 30
0.0
 40
6.03546677034055
100
AcDbArc
 50
185.351354122555
 51
354.648645877445
  0
ARC
  5
19CC
330
A
100
AcDbEntity
  8
断熱材
 62
     4
100
AcDbCircle
 10
894.720150684778
 20
763.395380547179
 30
0.0
 40
6.03546677034055
100
AcDbArc
 50
5.35135412252
 51
174.648645877549
  0
LINE
  5
19CD
330
A
100
AcDbEntity
  8
断熱材
 62
     4
370
    -1
100
AcDbLine
 10
900.729311913135
 20
763.958266385998
 30
0.0
 11
907.663968903042
 21
701.375066960121
 31
0.0
  0
LINE
  5
19CE
330
A
100
AcDbEntity
  8
断熱材
 62
     4
370
    -1
100
AcDbLine
 10
888.710989456435
 20
763.958266385998
 30
0.0
 11
881.776332466528
 21
701.375066960121
 31
0.0
  0
ARC
  5
19CF
330
A
100
AcDbEntity
  8
断熱材
 62
     4
100
AcDbCircle
 10
913.673130131356
 20
701.937952798944
 30
0.0
 40
6.03546677034055
100
AcDbArc
 50
185.351354122555
 51
354.648645877445
  0
ARC
  5
19D0
330
A
100
AcDbEntity
  8
断熱材
 62
     4
100
AcDbCircle
 10
932.626109577977
 20
763.395380547179
 30
0.0
 40
6.03546677034055
100
AcDbArc
 50
5.351354122451
 51
174.64864587748
  0
LINE
  5
19D1
330
A
100
AcDbEntity
  8
断熱材
 62
     4
370
    -1
100
AcDbLine
 10
938.63527080635
 20
763.958266385998
 30
0.0
 11
945.569927796241
 21
701.375066960121
 31
0.0
  0
LINE
  5
19D2
330
A
100
AcDbEntity
  8
断熱材
 62
     4
370
    -1
100
AcDbLine
 10
926.61694834962
 20
763.958266385998
 30
0.0
 11
919.682291359743
 21
701.375066960121
 31
0.0
  0
ARC
  5
19D3
330
A
100
AcDbEntity
  8
断熱材
 62
     4
100
AcDbCircle
 10
951.579089024599
 20
701.937952798944
 30
0.0
 40
6.03546677034055
100
AcDbArc
 50
185.351354122555
 51
354.648645877445
  0
ARC
  5
19D4
330
A
100
AcDbEntity
  8
断熱材
 62
     4
100
AcDbCircle
 10
970.532068471191
 20
763.395380547179
 30
0.0
 40
6.03546677034055
100
AcDbArc
 50
5.351354122451
 51
174.64864587748
  0
LINE
  5
19D5
330
A
100
AcDbEntity
  8
断熱材
 62
     4
370
    -1
100
AcDbLine
 10
976.54122969952
 20
763.958266385998
 30
0.0
 11
983.475886689455
 21
701.375066960121
 31
0.0
  0
LINE
  5
19D6
330
A
100
AcDbEntity
  8
断熱材
 62
     4
370
    -1
100
AcDbLine
 10
964.522907242848
 20
763.958266385998
 30
0.0
 11
957.588250252942
 21
701.375066960121
 31
0.0
  0
ARC
  5
19D7
330
A
100
AcDbEntity
  8
断熱材
 62
     4
100
AcDbCircle
 10
989.485047917784
 20
701.937952798944
 30
0.0
 40
6.03546677034055
100
AcDbArc
 50
185.351354122555
 51
354.648645877445
  0
ARC
  5
19D8
330
A
100
AcDbEntity
  8
断熱材
 62
     4
100
AcDbCircle
 10
1008.438027364391
 20
763.395380547179
 30
0.0
 40
6.03546677034055
100
AcDbArc
 50
5.351354122451
 51
174.648645877549
  0
LINE
  5
19D9
330
A
100
AcDbEntity
  8
断熱材
 62
     4
370
    -1
100
AcDbLine
 10
1014.447188592763
 20
763.958266385998
 30
0.0
 11
1021.381845582626
 21
701.375066960121
 31
0.0
  0
LINE
  5
19DA
330
A
100
AcDbEntity
  8
断熱材
 62
     4
370
    -1
100
AcDbLine
 10
1002.428866136033
 20
763.958266385998
 30
0.0
 11
995.494209146142
 21
701.375066960121
 31
0.0
  0
ARC
  5
19DB
330
A
100
AcDbEntity
  8
断熱材
 62
     4
100
AcDbCircle
 10
1027.391006811013
 20
701.937952798944
 30
0.0
 40
6.03546677034055
100
AcDbArc
 50
185.351354122555
 51
354.648645877445
  0
ARC
  5
19DC
330
A
100
AcDbEntity
  8
断熱材
 62
     4
100
AcDbCircle
 10
1046.343986257591
 20
763.395380547179
 30
0.0
 40
6.03546677034055
100
AcDbArc
 50
5.35135412252
 51
174.648645877549
  0
LINE
  5
19DD
330
A
100
AcDbEntity
  8
断熱材
 62
     4
370
    -1
100
AcDbLine
 10
1052.353147485934
 20
763.958266385998
 30
0.0
 11
1059.287804475855
 21
701.375066960121
 31
0.0
  0
LINE
  5
19DE
330
A
100
AcDbEntity
  8
断熱材
 62
     4
370
    -1
100
AcDbLine
 10
1040.334825029247
 20
763.958266385998
 30
0.0
 11
1033.400168039341
 21
701.375066960121
 31
0.0
  0
ARC
  5
19DF
330
A
100
AcDbEntity
  8
断熱材
 62
     4
100
AcDbCircle
 10
1065.296965704198
 20
701.937952798944
 30
0.0
 40
6.03546677034055
100
AcDbArc
 50
185.351354122555
 51
354.648645877445
  0
ARC
  5
19E0
330
A
100
AcDbEntity
  8
断熱材
 62
     4
100
AcDbCircle
 10
1084.24994515079
 20
763.395380547197
 30
0.0
 40
6.03546677034055
100
AcDbArc
 50
5.35135412252
 51
174.648645877445
  0
LINE
  5
19E1
330
A
100
AcDbEntity
  8
断熱材
 62
     4
370
    -1
100
AcDbLine
 10
1090.259106379177
 20
763.95826638602
 30
0.0
 11
1097.193763369054
 21
701.375066960143
 31
0.0
  0
LINE
  5
19E2
330
A
100
AcDbEntity
  8
断熱材
 62
     4
370
    -1
100
AcDbLine
 10
1078.240783922447
 20
763.95826638602
 30
0.0
 11
1071.306126932555
 21
701.375066960143
 31
0.0
  0
ARC
  5
19E3
330
A
100
AcDbEntity
  8
断熱材
 62
     4
100
AcDbCircle
 10
1103.202924597397
 20
701.937952798962
 30
0.0
 40
6.03546677034055
100
AcDbArc
 50
185.35135412252
 51
354.64864587748
  0
ARC
  5
19E4
330
A
100
AcDbEntity
  8
断熱材
 62
     4
100
AcDbCircle
 10
1122.155904044019
 20
763.395380547197
 30
0.0
 40
6.03546677034055
100
AcDbArc
 50
5.35135412252
 51
174.648645877445
  0
LINE
  5
19E5
330
A
100
AcDbEntity
  8
断熱材
 62
     4
370
    -1
100
AcDbLine
 10
1128.165065272362
 20
763.95826638602
 30
0.0
 11
1135.099722262239
 21
701.375066960143
 31
0.0
  0
LINE
  5
19E6
330
A
100
AcDbEntity
  8
断熱材
 62
     4
370
    -1
100
AcDbLine
 10
1116.146742815632
 20
763.95826638602
 30
0.0
 11
1109.212085825755
 21
701.375066960143
 31
0.0
  0
ARC
  5
19E7
330
A
100
AcDbEntity
  8
断熱材
 62
     4
100
AcDbCircle
 10
1141.108883490611
 20
701.937952798962
 30
0.0
 40
6.03546677034055
100
AcDbArc
 50
185.35135412252
 51
354.64864587748
  0
ARC
  5
19E8
330
A
100
AcDbEntity
  8
断熱材
 62
     4
100
AcDbCircle
 10
1160.061862937189
 20
763.395380547197
 30
0.0
 40
6.03546677034055
100
AcDbArc
 50
5.351354122555
 51
174.64864587748
  0
LINE
  5
19E9
330
A
100
AcDbEntity
  8
断熱材
 62
     4
370
    -1
100
AcDbLine
 10
1166.071024165547
 20
763.95826638602
 30
0.0
 11
1173.005681155453
 21
701.375066960143
 31
0.0
  0
LINE
  5
19EA
330
A
100
AcDbEntity
  8
断熱材
 62
     4
370
    -1
100
AcDbLine
 10
1154.052701708861
 20
763.95826638602
 30
0.0
 11
1147.118044718925
 21
701.375066960143
 31
0.0
  0
ARC
  5
19EB
330
A
100
AcDbEntity
  8
断熱材
 62
     4
100
AcDbCircle
 10
1179.014842383796
 20
701.937952798962
 30
0.0
 40
6.03546677034055
100
AcDbArc
 50
185.35135412252
 51
354.64864587748
  0
ARC
  5
19EC
330
A
100
AcDbEntity
  8
断熱材
 62
     4
100
AcDbCircle
 10
1197.967821830403
 20
763.395380547223
 30
0.0
 40
6.03546677034055
100
AcDbArc
 50
5.35135412252
 51
174.64864587748
  0
LINE
  5
19ED
330
A
100
AcDbEntity
  8
断熱材
 62
     4
370
    -1
100
AcDbLine
 10
1203.976983058761
 20
763.958266386042
 30
0.0
 11
1210.911640048667
 21
701.375066960165
 31
0.0
  0
LINE
  5
19EE
330
A
100
AcDbEntity
  8
断熱材
 62
     4
370
    -1
100
AcDbLine
 10
1191.958660602046
 20
763.958266386042
 30
0.0
 11
1185.024003612169
 21
701.375066960165
 31
0.0
  0
ARC
  5
19EF
330
A
100
AcDbEntity
  8
断熱材
 62
     4
100
AcDbCircle
 10
1216.920801277025
 20
701.937952798988
 30
0.0
 40
6.03546677034055
100
AcDbArc
 50
185.35135412252
 51
354.64864587748
  0
ARC
  5
19F0
330
A
100
AcDbEntity
  8
断熱材
 62
     4
100
AcDbCircle
 10
1235.873780723603
 20
763.395380547223
 30
0.0
 40
6.03546677034055
100
AcDbArc
 50
5.35135412252
 51
174.64864587748
  0
LINE
  5
19F1
330
A
100
AcDbEntity
  8
断熱材
 62
     4
370
    -1
100
AcDbLine
 10
1241.882941951946
 20
763.958266386042
 30
0.0
 11
1248.817598941852
 21
701.375066960165
 31
0.0
  0
LINE
  5
19F2
330
A
100
AcDbEntity
  8
断熱材
 62
     4
370
    -1
100
AcDbLine
 10
1229.864619495245
 20
763.958266386042
 30
0.0
 11
1222.929962505354
 21
701.375066960165
 31
0.0
  0
ARC
  5
19F3
330
A
100
AcDbEntity
  8
断熱材
 62
     4
100
AcDbCircle
 10
1254.826760170195
 20
701.937952798988
 30
0.0
 40
6.03546677034055
100
AcDbArc
 50
185.35135412252
 51
354.64864587748
  0
LINE
  5
19F4
330
A
100
AcDbEntity
  8
断熱材
 62
     4
370
    -1
100
AcDbLine
 10
1267.770578388459
 20
763.958266386042
 30
0.0
 11
1260.835921398568
 21
701.375066960165
 31
0.0
  0
ARC
  5
19F5
330
A
100
AcDbEntity
  8
断熱材
 62
     4
100
AcDbCircle
 10
1273.779739616817
 20
763.395380547223
 30
0.0
 40
6.03546677034055
100
AcDbArc
 50
5.35135412252
 51
174.64864587748
  0
LINE
  5
19F6
330
A
100
AcDbEntity
  8
断熱材
 62
     4
370
    -1
100
AcDbLine
 10
1279.78890084516
 20
763.958266386042
 30
0.0
 11
1286.723557835037
 21
701.375066960165
 31
0.0
  0
ARC
  5
19F7
330
A
100
AcDbEntity
  8
断熱材
 62
     4
100
AcDbCircle
 10
1292.73271906341
 20
701.937952798988
 30
0.0
 40
6.03546677034055
100
AcDbArc
 50
185.35135412252
 51
354.64864587748
  0
ARC
  5
19F8
330
A
100
AcDbEntity
  8
断熱材
 62
     4
100
AcDbCircle
 10
1311.685698510017
 20
763.395380547223
 30
0.0
 40
6.03546677034055
100
AcDbArc
 50
5.35135412252
 51
174.64864587748
  0
LINE
  5
19F9
330
A
100
AcDbEntity
  8
断熱材
 62
     4
370
    -1
100
AcDbLine
 10
1317.69485973836
 20
763.958266386042
 30
0.0
 11
1324.629516728281
 21
701.375066960165
 31
0.0
  0
LINE
  5
19FA
330
A
100
AcDbEntity
  8
断熱材
 62
     4
370
    -1
100
AcDbLine
 10
1305.676537281659
 20
763.958266386042
 30
0.0
 11
1298.741880291767
 21
701.375066960165
 31
0.0
  0
ARC
  5
19FB
330
A
100
AcDbEntity
  8
断熱材
 62
     4
100
AcDbCircle
 10
1330.638677956624
 20
701.937952798988
 30
0.0
 40
6.03546677034055
100
AcDbArc
 50
185.35135412252
 51
354.64864587748
  0
LINE
  5
19FC
330
A
100
AcDbEntity
  8
断熱材
 62
     4
370
    -1
100
AcDbLine
 10
1343.582496174873
 20
763.958266386042
 30
0.0
 11
1336.647839184967
 21
701.375066960165
 31
0.0
  0
ARC
  5
19FD
330
A
100
AcDbEntity
  8
断熱材
 62
     4
100
AcDbCircle
 10
1349.591657403202
 20
763.395380547223
 30
0.0
 40
6.03546677034055
100
AcDbArc
 50
5.35135412252
 51
174.64864587748
  0
LINE
  5
19FE
330
A
100
AcDbEntity
  8
断熱材
 62
     4
370
    -1
100
AcDbLine
 10
1355.600818631559
 20
763.958266386042
 30
0.0
 11
1362.535475621451
 21
701.375066960165
 31
0.0
  0
ARC
  5
19FF
330
A
100
AcDbEntity
  8
断熱材
 62
     4
100
AcDbCircle
 10
1368.544636849823
 20
701.937952798988
 30
0.0
 40
6.03546677034055
100
AcDbArc
 50
185.35135412252
 51
354.64864587748
  0
ARC
  5
1A00
330
A
100
AcDbEntity
  8
断熱材
 62
     4
100
AcDbCircle
 10
1387.49761629643
 20
763.395380547223
 30
0.0
 40
6.03546677034055
100
AcDbArc
 50
5.35135412252
 51
174.64864587748
  0
LINE
  5
1A01
330
A
100
AcDbEntity
  8
断熱材
 62
     4
370
    -1
100
AcDbLine
 10
1393.506777524759
 20
763.958266386042
 30
0.0
 11
1400.44143451468
 21
701.375066960165
 31
0.0
  0
LINE
  5
1A02
330
A
100
AcDbEntity
  8
断熱材
 62
     4
370
    -1
100
AcDbLine
 10
1381.488455068058
 20
763.958266386042
 30
0.0
 11
1374.553798078181
 21
701.375066960165
 31
0.0
  0
ARC
  5
1A03
330
A
100
AcDbEntity
  8
断熱材
 62
     4
100
AcDbCircle
 10
1406.450595743023
 20
701.937952798988
 30
0.0
 40
6.03546677034055
100
AcDbArc
 50
185.35135412252
 51
354.64864587748
  0
ARC
  5
1A04
330
A
100
AcDbEntity
  8
断熱材
 62
     4
100
AcDbCircle
 10
1425.403575189615
 20
763.395380547223
 30
0.0
 40
6.03546677034055
100
AcDbArc
 50
5.35135412252
 51
174.64864587748
  0
LINE
  5
1A05
330
A
100
AcDbEntity
  8
断熱材
 62
     4
370
    -1
100
AcDbLine
 10
1431.412736417973
 20
763.958266386042
 30
0.0
 11
1438.347393407865
 21
701.375066960165
 31
0.0
  0
ARC
  5
1A06
330
A
100
AcDbEntity
  8
断熱材
 62
     4
100
AcDbCircle
 10
1444.356554636208
 20
701.937952798988
 30
0.0
 40
6.03546677034055
100
AcDbArc
 50
185.35135412252
 51
354.64864587748
  0
LINE
  5
1A07
330
A
100
AcDbEntity
  8
断熱材
 62
     4
370
    -1
100
AcDbLine
 10
1456.635203500598
 20
757.955312471269
 30
0.0
 11
1450.365715864595
 21
701.375066960165
 31
0.0
  0
LINE
  5
1A08
330
A
100
AcDbEntity
  8
断熱材
 62
     4
370
    -1
100
AcDbLine
 10
1419.394413961272
 20
763.95826638602
 30
0.0
 11
1412.459756971395
 21
701.375066960143
 31
0.0
  0
LINE
  5
1A09
330
A
100
AcDbEntity
  8
断熱材
100
AcDbLine
 10
616.635203458602
 20
692.666666671601
 30
0.0
 11
1456.635203500598
 21
692.666666671601
 31
0.0
  0
LINE
  5
1A0A
330
A
100
AcDbEntity
  8
断熱材
100
AcDbLine
 10
616.635203458602
 20
772.666666675599
 30
0.0
 11
616.635203458602
 21
692.666666671601
 31
0.0
  0
LINE
  5
1A0B
330
A
100
AcDbEntity
  8
中心線
 48
0.25
100
AcDbLine
 10
694.679027283477
 20
808.458425310375
 30
0.0
 11
694.679027283477
 21
600.287912326781
 31
0.0
  0
LINE
  5
1A0C
330
A
100
AcDbEntity
  8
部材(ﾋﾞｽ類)
370
     5
100
AcDbLine
 10
691.479027290348
 20
690.397787677841
 30
0.0
 11
691.479027290348
 21
688.163372693354
 31
0.0
  0
LINE
  5
1A0D
330
A
100
AcDbEntity
  8
部材(ﾋﾞｽ類)
370
     5
100
AcDbLine
 10
691.479027290348
 20
686.665025452352
 30
0.0
 11
691.479027290348
 21
684.593246691762
 31
0.0
  0
LINE
  5
1A0E
330
A
100
AcDbEntity
  8
部材(ﾋﾞｽ類)
370
     5
100
AcDbLine
 10
691.479027290348
 20
682.877787677466
 30
0.0
 11
691.479027290348
 21
680.643372692979
 31
0.0
  0
LINE
  5
1A0F
330
A
100
AcDbEntity
  8
部材(ﾋﾞｽ類)
370
     5
100
AcDbLine
 10
697.879027290692
 20
690.425025452529
 30
0.0
 11
697.879027290692
 21
688.19061046806
 31
0.0
  0
LINE
  5
1A10
330
A
100
AcDbEntity
  8
部材(ﾋﾞｽ類)
370
     5
100
AcDbLine
 10
697.879027290692
 20
686.475151453764
 30
0.0
 11
697.879027290692
 21
684.403372693174
 31
0.0
  0
LINE
  5
1A11
330
A
100
AcDbEntity
  8
部材(ﾋﾞｽ類)
100
AcDbLine
 10
698.585693957386
 20
791.756927028822
 30
0.0
 11
698.585693957386
 21
709.974199073979
 31
0.0
  0
LINE
  5
1A12
330
A
100
AcDbEntity
  8
部材(ﾋﾞｽ類)
100
AcDbLine
 10
690.77236062364
 20
791.756927028822
 30
0.0
 11
690.77236062364
 21
709.974199073979
 31
0.0
  0
LINE
  5
1A13
330
A
100
AcDbEntity
  8
部材(ﾋﾞｽ類)
100
AcDbLine
 10
684.01236062331
 20
803.200865745304
 30
0.0
 11
705.345693957715
 21
803.200865745304
 31
0.0
  0
ARC
  5
1A14
330
A
100
AcDbEntity
  8
部材(ﾋﾞｽ類)
100
AcDbCircle
 10
704.279027290992
 20
803.200865745304
 30
0.0
 40
1.06666666672
100
AcDbArc
 50
298.858821463479
 51
90.0
  0
LINE
  5
1A15
330
A
100
AcDbEntity
  8
部材(ﾋﾞｽ類)
100
AcDbLine
 10
685.079027290049
 20
804.267532412028
 30
0.0
 11
704.279027290992
 21
804.267532412028
 31
0.0
  0
ARC
  5
1A16
330
A
100
AcDbEntity
  8
部材(ﾋﾞｽ類)
100
AcDbCircle
 10
710.585693957983
 20
791.756927028822
 30
0.0
 40
12.0000000006
100
AcDbArc
 50
118.858821463499
 51
180.0
  0
ARC
  5
1A17
330
A
100
AcDbEntity
  8
部材(ﾋﾞｽ類)
100
AcDbCircle
 10
685.079027290049
 20
803.200865745304
 30
0.0
 40
1.06666666672
100
AcDbArc
 50
90.0
 51
241.14117853563
  0
ARC
  5
1A18
330
A
100
AcDbEntity
  8
部材(ﾋﾞｽ類)
100
AcDbCircle
 10
678.772360623043
 20
791.756927028822
 30
0.0
 40
12.0000000006
100
AcDbArc
 50
0.0
 51
61.141178536501
  0
LINE
  5
1A19
330
A
100
AcDbEntity
  8
部材(ﾋﾞｽ類)
370
     5
100
AcDbLine
 10
698.945693957387
 20
691.040865739702
 30
0.0
 11
690.412360623639
 21
687.280865739503
 31
0.0
  0
LINE
  5
1A1A
330
A
100
AcDbEntity
  8
部材(ﾋﾞｽ類)
370
     5
100
AcDbLine
 10
698.945693957387
 20
691.307532406379
 30
0.0
 11
690.412360623639
 21
687.547532406199
 31
0.0
  0
LINE
  5
1A1B
330
A
100
AcDbEntity
  8
部材(ﾋﾞｽ類)
370
     5
100
AcDbLine
 10
690.412360623639
 20
687.547532406199
 30
0.0
 11
690.412360623639
 21
687.280865739503
 31
0.0
  0
LINE
  5
1A1C
330
A
100
AcDbEntity
  8
部材(ﾋﾞｽ類)
370
     5
100
AcDbLine
 10
690.412360623639
 20
687.280865739503
 30
0.0
 11
691.479027290348
 21
686.665025452352
 31
0.0
  0
LINE
  5
1A1D
330
A
100
AcDbEntity
  8
部材(ﾋﾞｽ類)
370
     5
100
AcDbLine
 10
690.412360623639
 20
687.547532406199
 30
0.0
 11
691.479027290348
 21
688.163372693354
 31
0.0
  0
LINE
  5
1A1E
330
A
100
AcDbEntity
  8
部材(ﾋﾞｽ類)
370
     5
100
AcDbLine
 10
698.945693957387
 20
691.307532406379
 30
0.0
 11
698.945693957387
 21
691.040865739702
 31
0.0
  0
LINE
  5
1A1F
330
A
100
AcDbEntity
  8
部材(ﾋﾞｽ類)
370
     5
100
AcDbLine
 10
698.945693957387
 20
691.040865739702
 30
0.0
 11
697.879027290692
 21
690.425025452529
 31
0.0
  0
LINE
  5
1A20
330
A
100
AcDbEntity
  8
部材(ﾋﾞｽ類)
370
     5
100
AcDbLine
 10
698.945693957387
 20
691.307532406379
 30
0.0
 11
697.929381692375
 21
691.894300566168
 31
0.0
  0
LINE
  5
1A21
330
A
100
AcDbEntity
  8
部材(ﾋﾞｽ類)
370
     5
100
AcDbLine
 10
697.879027290692
 20
690.425025452529
 30
0.0
 11
691.479027290348
 21
686.665025452352
 31
0.0
  0
LINE
  5
1A22
330
A
100
AcDbEntity
  8
部材(ﾋﾞｽ類)
370
     5
100
AcDbLine
 10
691.479027290348
 20
688.163372693354
 30
0.0
 11
697.929381692375
 21
691.894300566168
 31
0.0
  0
LINE
  5
1A23
330
A
100
AcDbEntity
  8
部材(ﾋﾞｽ類)
370
     5
100
AcDbLine
 10
700.279027290788
 20
687.280865739503
 30
0.0
 11
689.079027290238
 21
683.520865739327
 31
0.0
  0
LINE
  5
1A24
330
A
100
AcDbEntity
  8
部材(ﾋﾞｽ類)
370
     5
100
AcDbLine
 10
700.279027290788
 20
687.547532406199
 30
0.0
 11
689.079027290238
 21
683.787532406004
 31
0.0
  0
LINE
  5
1A25
330
A
100
AcDbEntity
  8
部材(ﾋﾞｽ類)
370
     5
100
AcDbLine
 10
698.945693957387
 20
683.520865739327
 30
0.0
 11
690.412360623639
 21
679.760865739128
 31
0.0
  0
LINE
  5
1A26
330
A
100
AcDbEntity
  8
部材(ﾋﾞｽ類)
370
     5
100
AcDbLine
 10
698.945693957387
 20
683.787532406004
 30
0.0
 11
690.412360623639
 21
680.027532405824
 31
0.0
  0
LINE
  5
1A27
330
A
100
AcDbEntity
  8
部材(ﾋﾞｽ類)
370
     5
100
AcDbLine
 10
689.079027290238
 20
683.787532406004
 30
0.0
 11
689.079027290238
 21
683.520865739327
 31
0.0
  0
LINE
  5
1A28
330
A
100
AcDbEntity
  8
部材(ﾋﾞｽ類)
370
     5
100
AcDbLine
 10
689.079027290238
 20
683.520865739327
 30
0.0
 11
691.479027290348
 21
682.877787677466
 31
0.0
  0
LINE
  5
1A29
330
A
100
AcDbEntity
  8
部材(ﾋﾞｽ類)
370
     5
100
AcDbLine
 10
690.412360623639
 20
680.027532405824
 30
0.0
 11
690.412360623639
 21
679.760865739128
 31
0.0
  0
LINE
  5
1A2A
330
A
100
AcDbEntity
  8
部材(ﾋﾞｽ類)
370
     5
100
AcDbLine
 10
690.412360623639
 20
679.760865739128
 30
0.0
 11
691.479027290348
 21
679.145025451977
 31
0.0
  0
LINE
  5
1A2B
330
A
100
AcDbEntity
  8
部材(ﾋﾞｽ類)
370
     5
100
AcDbLine
 10
690.412360623639
 20
680.027532405824
 30
0.0
 11
691.479027290348
 21
680.643372692979
 31
0.0
  0
LINE
  5
1A2C
330
A
100
AcDbEntity
  8
部材(ﾋﾞｽ類)
370
     5
100
AcDbLine
 10
700.279027290788
 20
687.547532406199
 30
0.0
 11
700.279027290788
 21
687.280865739503
 31
0.0
  0
LINE
  5
1A2D
330
A
100
AcDbEntity
  8
部材(ﾋﾞｽ類)
370
     5
100
AcDbLine
 10
700.279027290788
 20
687.547532406199
 30
0.0
 11
697.879027290692
 21
688.19061046806
 31
0.0
  0
LINE
  5
1A2E
330
A
100
AcDbEntity
  8
部材(ﾋﾞｽ類)
370
     5
100
AcDbLine
 10
698.945693957387
 20
683.787532406004
 30
0.0
 11
698.945693957387
 21
683.520865739327
 31
0.0
  0
LINE
  5
1A2F
330
A
100
AcDbEntity
  8
部材(ﾋﾞｽ類)
370
     5
100
AcDbLine
 10
698.945693957387
 20
683.520865739327
 30
0.0
 11
697.879027290692
 21
682.905025452153
 31
0.0
  0
LINE
  5
1A30
330
A
100
AcDbEntity
  8
部材(ﾋﾞｽ類)
370
     5
100
AcDbLine
 10
698.945693957387
 20
683.787532406004
 30
0.0
 11
697.879027290692
 21
684.403372693174
 31
0.0
  0
LINE
  5
1A31
330
A
100
AcDbEntity
  8
部材(ﾋﾞｽ類)
370
     5
100
AcDbLine
 10
697.23309618872
 20
686.258303155235
 30
0.0
 11
691.479027290348
 21
682.877787677466
 31
0.0
  0
LINE
  5
1A32
330
A
100
AcDbEntity
  8
部材(ﾋﾞｽ類)
370
     5
100
AcDbLine
 10
697.879027290692
 20
688.19061046806
 30
0.0
 11
692.12495839232
 21
684.810094990273
 31
0.0
  0
LINE
  5
1A33
330
A
100
AcDbEntity
  8
部材(ﾋﾞｽ類)
370
     5
100
AcDbLine
 10
697.879027290692
 20
682.905025452153
 30
0.0
 11
691.479027290348
 21
679.145025451977
 31
0.0
  0
LINE
  5
1A34
330
A
100
AcDbEntity
  8
部材(ﾋﾞｽ類)
370
     5
100
AcDbLine
 10
691.479027290348
 20
680.643372692979
 30
0.0
 11
697.879027290692
 21
684.403372693174
 31
0.0
  0
LINE
  5
1A35
330
A
100
AcDbEntity
  8
部材(ﾋﾞｽ類)
370
     5
100
AcDbLine
 10
691.479027290348
 20
679.145025451977
 30
0.0
 11
691.479027290348
 21
677.073246691387
 31
0.0
  0
LINE
  5
1A36
330
A
100
AcDbEntity
  8
部材(ﾋﾞｽ類)
370
     5
100
AcDbLine
 10
691.479027290348
 20
675.357787677091
 30
0.0
 11
691.479027290348
 21
673.123372692604
 31
0.0
  0
LINE
  5
1A37
330
A
100
AcDbEntity
  8
部材(ﾋﾞｽ類)
370
     5
100
AcDbLine
 10
697.879027290692
 20
682.905025452153
 30
0.0
 11
697.879027290692
 21
680.670610467685
 31
0.0
  0
LINE
  5
1A38
330
A
100
AcDbEntity
  8
部材(ﾋﾞｽ類)
370
     5
100
AcDbLine
 10
697.879027290692
 20
678.955151453389
 30
0.0
 11
697.879027290692
 21
676.883372692799
 31
0.0
  0
LINE
  5
1A39
330
A
100
AcDbEntity
  8
部材(ﾋﾞｽ類)
370
     5
100
AcDbLine
 10
700.279027290788
 20
679.760865739128
 30
0.0
 11
689.079027290238
 21
676.000865738952
 31
0.0
  0
LINE
  5
1A3A
330
A
100
AcDbEntity
  8
部材(ﾋﾞｽ類)
370
     5
100
AcDbLine
 10
700.279027290788
 20
680.027532405824
 30
0.0
 11
689.079027290238
 21
676.267532405629
 31
0.0
  0
LINE
  5
1A3B
330
A
100
AcDbEntity
  8
部材(ﾋﾞｽ類)
370
     5
100
AcDbLine
 10
698.945693957387
 20
676.000865738952
 30
0.0
 11
690.412360623639
 21
672.240865738753
 31
0.0
  0
LINE
  5
1A3C
330
A
100
AcDbEntity
  8
部材(ﾋﾞｽ類)
370
     5
100
AcDbLine
 10
698.945693957387
 20
676.267532405629
 30
0.0
 11
690.412360623639
 21
672.507532405431
 31
0.0
  0
LINE
  5
1A3D
330
A
100
AcDbEntity
  8
部材(ﾋﾞｽ類)
370
     5
100
AcDbLine
 10
689.079027290238
 20
676.267532405629
 30
0.0
 11
689.079027290238
 21
676.000865738952
 31
0.0
  0
LINE
  5
1A3E
330
A
100
AcDbEntity
  8
部材(ﾋﾞｽ類)
370
     5
100
AcDbLine
 10
689.079027290238
 20
676.000865738952
 30
0.0
 11
691.479027290348
 21
675.357787677091
 31
0.0
  0
LINE
  5
1A3F
330
A
100
AcDbEntity
  8
部材(ﾋﾞｽ類)
370
     5
100
AcDbLine
 10
690.412360623639
 20
672.507532405431
 30
0.0
 11
690.412360623639
 21
672.240865738753
 31
0.0
  0
LINE
  5
1A40
330
A
100
AcDbEntity
  8
部材(ﾋﾞｽ類)
370
     5
100
AcDbLine
 10
690.412360623639
 20
672.240865738753
 30
0.0
 11
691.479027290348
 21
671.625025451602
 31
0.0
  0
LINE
  5
1A41
330
A
100
AcDbEntity
  8
部材(ﾋﾞｽ類)
370
     5
100
AcDbLine
 10
690.412360623639
 20
672.507532405431
 30
0.0
 11
691.479027290348
 21
673.123372692604
 31
0.0
  0
LINE
  5
1A42
330
A
100
AcDbEntity
  8
部材(ﾋﾞｽ類)
370
     5
100
AcDbLine
 10
700.279027290788
 20
680.027532405824
 30
0.0
 11
700.279027290788
 21
679.760865739128
 31
0.0
  0
LINE
  5
1A43
330
A
100
AcDbEntity
  8
部材(ﾋﾞｽ類)
370
     5
100
AcDbLine
 10
700.279027290788
 20
680.027532405824
 30
0.0
 11
697.879027290692
 21
680.670610467685
 31
0.0
  0
LINE
  5
1A44
330
A
100
AcDbEntity
  8
部材(ﾋﾞｽ類)
370
     5
100
AcDbLine
 10
698.945693957387
 20
676.267532405629
 30
0.0
 11
698.945693957387
 21
676.000865738952
 31
0.0
  0
LINE
  5
1A45
330
A
100
AcDbEntity
  8
部材(ﾋﾞｽ類)
370
     5
100
AcDbLine
 10
698.945693957387
 20
676.000865738952
 30
0.0
 11
697.879027290692
 21
675.385025451778
 31
0.0
  0
LINE
  5
1A46
330
A
100
AcDbEntity
  8
部材(ﾋﾞｽ類)
370
     5
100
AcDbLine
 10
698.945693957387
 20
676.267532405629
 30
0.0
 11
697.879027290692
 21
676.883372692799
 31
0.0
  0
LINE
  5
1A47
330
A
100
AcDbEntity
  8
部材(ﾋﾞｽ類)
370
     5
100
AcDbLine
 10
697.23309618872
 20
678.73830315486
 30
0.0
 11
691.479027290348
 21
675.357787677091
 31
0.0
  0
LINE
  5
1A48
330
A
100
AcDbEntity
  8
部材(ﾋﾞｽ類)
370
     5
100
AcDbLine
 10
697.879027290692
 20
680.670610467685
 30
0.0
 11
692.12495839232
 21
677.290094989898
 31
0.0
  0
LINE
  5
1A49
330
A
100
AcDbEntity
  8
部材(ﾋﾞｽ類)
370
     5
100
AcDbLine
 10
697.879027290692
 20
675.385025451778
 30
0.0
 11
691.479027290348
 21
671.625025451602
 31
0.0
  0
LINE
  5
1A4A
330
A
100
AcDbEntity
  8
部材(ﾋﾞｽ類)
370
     5
100
AcDbLine
 10
691.479027290348
 20
673.123372692604
 30
0.0
 11
697.879027290692
 21
676.883372692799
 31
0.0
  0
LINE
  5
1A4B
330
A
100
AcDbEntity
  8
部材(ﾋﾞｽ類)
370
     5
100
AcDbLine
 10
691.479027290348
 20
671.625025451602
 30
0.0
 11
691.479027290348
 21
669.553246691012
 31
0.0
  0
LINE
  5
1A4C
330
A
100
AcDbEntity
  8
部材(ﾋﾞｽ類)
370
     5
100
AcDbLine
 10
691.479027290348
 20
667.837787676694
 30
0.0
 11
691.479027290348
 21
665.603372692229
 31
0.0
  0
LINE
  5
1A4D
330
A
100
AcDbEntity
  8
部材(ﾋﾞｽ類)
370
     5
100
AcDbLine
 10
697.879027290692
 20
675.385025451778
 30
0.0
 11
697.879027290692
 21
673.15061046731
 31
0.0
  0
LINE
  5
1A4E
330
A
100
AcDbEntity
  8
部材(ﾋﾞｽ類)
370
     5
100
AcDbLine
 10
697.879027290692
 20
671.435151453014
 30
0.0
 11
697.879027290692
 21
669.363372692424
 31
0.0
  0
LINE
  5
1A4F
330
A
100
AcDbEntity
  8
部材(ﾋﾞｽ類)
370
     5
100
AcDbLine
 10
700.279027290788
 20
672.240865738753
 30
0.0
 11
689.079027290238
 21
668.480865738577
 31
0.0
  0
LINE
  5
1A50
330
A
100
AcDbEntity
  8
部材(ﾋﾞｽ類)
370
     5
100
AcDbLine
 10
700.279027290788
 20
672.507532405431
 30
0.0
 11
689.079027290238
 21
668.747532405254
 31
0.0
  0
LINE
  5
1A51
330
A
100
AcDbEntity
  8
部材(ﾋﾞｽ類)
370
     5
100
AcDbLine
 10
698.945693957387
 20
668.480865738577
 30
0.0
 11
690.412360623639
 21
664.720865738378
 31
0.0
  0
LINE
  5
1A52
330
A
100
AcDbEntity
  8
部材(ﾋﾞｽ類)
370
     5
100
AcDbLine
 10
698.945693957387
 20
668.747532405254
 30
0.0
 11
690.412360623639
 21
664.987532405055
 31
0.0
  0
LINE
  5
1A53
330
A
100
AcDbEntity
  8
部材(ﾋﾞｽ類)
370
     5
100
AcDbLine
 10
689.079027290238
 20
668.747532405254
 30
0.0
 11
689.079027290238
 21
668.480865738577
 31
0.0
  0
LINE
  5
1A54
330
A
100
AcDbEntity
  8
部材(ﾋﾞｽ類)
370
     5
100
AcDbLine
 10
689.079027290238
 20
668.480865738577
 30
0.0
 11
691.479027290348
 21
667.837787676694
 31
0.0
  0
LINE
  5
1A55
330
A
100
AcDbEntity
  8
部材(ﾋﾞｽ類)
370
     5
100
AcDbLine
 10
690.412360623639
 20
664.987532405055
 30
0.0
 11
690.412360623639
 21
664.720865738378
 31
0.0
  0
LINE
  5
1A56
330
A
100
AcDbEntity
  8
部材(ﾋﾞｽ類)
370
     5
100
AcDbLine
 10
690.412360623639
 20
664.720865738378
 30
0.0
 11
691.479027290348
 21
664.105025451227
 31
0.0
  0
LINE
  5
1A57
330
A
100
AcDbEntity
  8
部材(ﾋﾞｽ類)
370
     5
100
AcDbLine
 10
690.412360623639
 20
664.987532405055
 30
0.0
 11
691.479027290348
 21
665.603372692229
 31
0.0
  0
LINE
  5
1A58
330
A
100
AcDbEntity
  8
部材(ﾋﾞｽ類)
370
     5
100
AcDbLine
 10
700.279027290788
 20
672.507532405431
 30
0.0
 11
700.279027290788
 21
672.240865738753
 31
0.0
  0
LINE
  5
1A59
330
A
100
AcDbEntity
  8
部材(ﾋﾞｽ類)
370
     5
100
AcDbLine
 10
700.279027290788
 20
672.507532405431
 30
0.0
 11
697.879027290692
 21
673.15061046731
 31
0.0
  0
LINE
  5
1A5A
330
A
100
AcDbEntity
  8
部材(ﾋﾞｽ類)
370
     5
100
AcDbLine
 10
698.945693957387
 20
668.747532405254
 30
0.0
 11
698.945693957387
 21
668.480865738577
 31
0.0
  0
LINE
  5
1A5B
330
A
100
AcDbEntity
  8
部材(ﾋﾞｽ類)
370
     5
100
AcDbLine
 10
698.945693957387
 20
668.480865738577
 30
0.0
 11
697.879027290692
 21
667.865025451403
 31
0.0
  0
LINE
  5
1A5C
330
A
100
AcDbEntity
  8
部材(ﾋﾞｽ類)
370
     5
100
AcDbLine
 10
698.945693957387
 20
668.747532405254
 30
0.0
 11
697.879027290692
 21
669.363372692424
 31
0.0
  0
LINE
  5
1A5D
330
A
100
AcDbEntity
  8
部材(ﾋﾞｽ類)
370
     5
100
AcDbLine
 10
697.23309618872
 20
671.218303154485
 30
0.0
 11
691.479027290348
 21
667.837787676694
 31
0.0
  0
LINE
  5
1A5E
330
A
100
AcDbEntity
  8
部材(ﾋﾞｽ類)
370
     5
100
AcDbLine
 10
697.879027290692
 20
673.15061046731
 30
0.0
 11
692.12495839232
 21
669.770094989522
 31
0.0
  0
LINE
  5
1A5F
330
A
100
AcDbEntity
  8
部材(ﾋﾞｽ類)
370
     5
100
AcDbLine
 10
697.879027290692
 20
667.865025451403
 30
0.0
 11
691.479027290348
 21
664.105025451227
 31
0.0
  0
LINE
  5
1A60
330
A
100
AcDbEntity
  8
部材(ﾋﾞｽ類)
370
     5
100
AcDbLine
 10
691.479027290348
 20
665.603372692229
 30
0.0
 11
697.879027290692
 21
669.363372692424
 31
0.0
  0
LINE
  5
1A61
330
A
100
AcDbEntity
  8
部材(ﾋﾞｽ類)
370
     5
100
AcDbLine
 10
691.479027290348
 20
664.105025451227
 30
0.0
 11
691.479027290348
 21
662.033246690637
 31
0.0
  0
LINE
  5
1A62
330
A
100
AcDbEntity
  8
部材(ﾋﾞｽ類)
370
     5
100
AcDbLine
 10
691.479027290348
 20
660.317787676318
 30
0.0
 11
691.479027290348
 21
658.083372691854
 31
0.0
  0
LINE
  5
1A63
330
A
100
AcDbEntity
  8
部材(ﾋﾞｽ類)
370
     5
100
AcDbLine
 10
697.879027290692
 20
667.865025451403
 30
0.0
 11
697.879027290692
 21
665.630610466935
 31
0.0
  0
LINE
  5
1A64
330
A
100
AcDbEntity
  8
部材(ﾋﾞｽ類)
370
     5
100
AcDbLine
 10
697.879027290692
 20
663.91515145262
 30
0.0
 11
697.879027290692
 21
661.843372692048
 31
0.0
  0
LINE
  5
1A65
330
A
100
AcDbEntity
  8
部材(ﾋﾞｽ類)
370
     5
100
AcDbLine
 10
700.279027290788
 20
664.720865738378
 30
0.0
 11
689.079027290238
 21
660.960865738201
 31
0.0
  0
LINE
  5
1A66
330
A
100
AcDbEntity
  8
部材(ﾋﾞｽ類)
370
     5
100
AcDbLine
 10
700.279027290788
 20
664.987532405055
 30
0.0
 11
689.079027290238
 21
661.227532404875
 31
0.0
  0
LINE
  5
1A67
330
A
100
AcDbEntity
  8
部材(ﾋﾞｽ類)
370
     5
100
AcDbLine
 10
698.945693957387
 20
660.960865738201
 30
0.0
 11
690.412360623639
 21
657.200865738003
 31
0.0
  0
LINE
  5
1A68
330
A
100
AcDbEntity
  8
部材(ﾋﾞｽ類)
370
     5
100
AcDbLine
 10
698.945693957387
 20
661.227532404875
 30
0.0
 11
690.412360623639
 21
657.46753240468
 31
0.0
  0
LINE
  5
1A69
330
A
100
AcDbEntity
  8
部材(ﾋﾞｽ類)
370
     5
100
AcDbLine
 10
689.079027290238
 20
661.227532404875
 30
0.0
 11
689.079027290238
 21
660.960865738201
 31
0.0
  0
LINE
  5
1A6A
330
A
100
AcDbEntity
  8
部材(ﾋﾞｽ類)
370
     5
100
AcDbLine
 10
689.079027290238
 20
660.960865738201
 30
0.0
 11
691.479027290348
 21
660.317787676318
 31
0.0
  0
LINE
  5
1A6B
330
A
100
AcDbEntity
  8
部材(ﾋﾞｽ類)
370
     5
100
AcDbLine
 10
690.412360623639
 20
657.46753240468
 30
0.0
 11
690.412360623639
 21
657.200865738003
 31
0.0
  0
LINE
  5
1A6C
330
A
100
AcDbEntity
  8
部材(ﾋﾞｽ類)
370
     5
100
AcDbLine
 10
690.412360623639
 20
657.200865738003
 30
0.0
 11
691.479027290348
 21
656.585025450851
 31
0.0
  0
LINE
  5
1A6D
330
A
100
AcDbEntity
  8
部材(ﾋﾞｽ類)
370
     5
100
AcDbLine
 10
690.412360623639
 20
657.46753240468
 30
0.0
 11
691.479027290348
 21
658.083372691854
 31
0.0
  0
LINE
  5
1A6E
330
A
100
AcDbEntity
  8
部材(ﾋﾞｽ類)
370
     5
100
AcDbLine
 10
700.279027290788
 20
664.987532405055
 30
0.0
 11
700.279027290788
 21
664.720865738378
 31
0.0
  0
LINE
  5
1A6F
330
A
100
AcDbEntity
  8
部材(ﾋﾞｽ類)
370
     5
100
AcDbLine
 10
700.279027290788
 20
664.987532405055
 30
0.0
 11
697.879027290692
 21
665.630610466935
 31
0.0
  0
LINE
  5
1A70
330
A
100
AcDbEntity
  8
部材(ﾋﾞｽ類)
370
     5
100
AcDbLine
 10
698.945693957387
 20
661.227532404875
 30
0.0
 11
698.945693957387
 21
660.960865738201
 31
0.0
  0
LINE
  5
1A71
330
A
100
AcDbEntity
  8
部材(ﾋﾞｽ類)
370
     5
100
AcDbLine
 10
698.945693957387
 20
660.960865738201
 30
0.0
 11
697.879027290692
 21
660.345025451028
 31
0.0
  0
LINE
  5
1A72
330
A
100
AcDbEntity
  8
部材(ﾋﾞｽ類)
370
     5
100
AcDbLine
 10
698.945693957387
 20
661.227532404875
 30
0.0
 11
697.879027290692
 21
661.843372692048
 31
0.0
  0
LINE
  5
1A73
330
A
100
AcDbEntity
  8
部材(ﾋﾞｽ類)
370
     5
100
AcDbLine
 10
697.23309618872
 20
663.698303154109
 30
0.0
 11
691.479027290348
 21
660.317787676318
 31
0.0
  0
LINE
  5
1A74
330
A
100
AcDbEntity
  8
部材(ﾋﾞｽ類)
370
     5
100
AcDbLine
 10
697.879027290692
 20
665.630610466935
 30
0.0
 11
692.12495839232
 21
662.250094989147
 31
0.0
  0
LINE
  5
1A75
330
A
100
AcDbEntity
  8
部材(ﾋﾞｽ類)
370
     5
100
AcDbLine
 10
697.879027290692
 20
660.345025451028
 30
0.0
 11
691.479027290348
 21
656.585025450851
 31
0.0
  0
LINE
  5
1A76
330
A
100
AcDbEntity
  8
部材(ﾋﾞｽ類)
370
     5
100
AcDbLine
 10
691.479027290348
 20
658.083372691854
 30
0.0
 11
697.879027290692
 21
661.843372692048
 31
0.0
  0
LINE
  5
1A77
330
A
100
AcDbEntity
  8
部材(ﾋﾞｽ類)
370
     5
100
AcDbLine
 10
691.479027290348
 20
656.585025450851
 30
0.0
 11
691.479027290348
 21
654.513246690261
 31
0.0
  0
LINE
  5
1A78
330
A
100
AcDbEntity
  8
部材(ﾋﾞｽ類)
370
     5
100
AcDbLine
 10
691.479027290348
 20
652.797787675943
 30
0.0
 11
691.479027290348
 21
650.563372691478
 31
0.0
  0
LINE
  5
1A79
330
A
100
AcDbEntity
  8
部材(ﾋﾞｽ類)
370
     5
100
AcDbLine
 10
697.879027290692
 20
660.345025451028
 30
0.0
 11
697.879027290692
 21
658.11061046656
 31
0.0
  0
LINE
  5
1A7A
330
A
100
AcDbEntity
  8
部材(ﾋﾞｽ類)
370
     5
100
AcDbLine
 10
697.879027290692
 20
656.395151452245
 30
0.0
 11
697.879027290692
 21
654.323372691673
 31
0.0
  0
LINE
  5
1A7B
330
A
100
AcDbEntity
  8
部材(ﾋﾞｽ類)
370
     5
100
AcDbLine
 10
700.279027290788
 20
657.200865738003
 30
0.0
 11
689.079027290238
 21
653.440865737826
 31
0.0
  0
LINE
  5
1A7C
330
A
100
AcDbEntity
  8
部材(ﾋﾞｽ類)
370
     5
100
AcDbLine
 10
700.279027290788
 20
657.46753240468
 30
0.0
 11
689.079027290238
 21
653.7075324045
 31
0.0
  0
LINE
  5
1A7D
330
A
100
AcDbEntity
  8
部材(ﾋﾞｽ類)
370
     5
100
AcDbLine
 10
698.945693957387
 20
653.440865737826
 30
0.0
 11
690.412360623639
 21
649.680865737628
 31
0.0
  0
LINE
  5
1A7E
330
A
100
AcDbEntity
  8
部材(ﾋﾞｽ類)
370
     5
100
AcDbLine
 10
698.945693957387
 20
653.7075324045
 30
0.0
 11
690.412360623639
 21
649.947532404305
 31
0.0
  0
LINE
  5
1A7F
330
A
100
AcDbEntity
  8
部材(ﾋﾞｽ類)
370
     5
100
AcDbLine
 10
689.079027290238
 20
653.7075324045
 30
0.0
 11
689.079027290238
 21
653.440865737826
 31
0.0
  0
LINE
  5
1A80
330
A
100
AcDbEntity
  8
部材(ﾋﾞｽ類)
370
     5
100
AcDbLine
 10
689.079027290238
 20
653.440865737826
 30
0.0
 11
691.479027290348
 21
652.797787675943
 31
0.0
  0
LINE
  5
1A81
330
A
100
AcDbEntity
  8
部材(ﾋﾞｽ類)
370
     5
100
AcDbLine
 10
690.412360623639
 20
649.947532404305
 30
0.0
 11
690.412360623639
 21
649.680865737628
 31
0.0
  0
LINE
  5
1A82
330
A
100
AcDbEntity
  8
部材(ﾋﾞｽ類)
370
     5
100
AcDbLine
 10
690.412360623639
 20
649.680865737628
 30
0.0
 11
691.479027290348
 21
649.065025450454
 31
0.0
  0
LINE
  5
1A83
330
A
100
AcDbEntity
  8
部材(ﾋﾞｽ類)
370
     5
100
AcDbLine
 10
690.412360623639
 20
649.947532404305
 30
0.0
 11
691.479027290348
 21
650.563372691478
 31
0.0
  0
LINE
  5
1A84
330
A
100
AcDbEntity
  8
部材(ﾋﾞｽ類)
370
     5
100
AcDbLine
 10
700.279027290788
 20
657.46753240468
 30
0.0
 11
700.279027290788
 21
657.200865738003
 31
0.0
  0
LINE
  5
1A85
330
A
100
AcDbEntity
  8
部材(ﾋﾞｽ類)
370
     5
100
AcDbLine
 10
700.279027290788
 20
657.46753240468
 30
0.0
 11
697.879027290692
 21
658.11061046656
 31
0.0
  0
LINE
  5
1A86
330
A
100
AcDbEntity
  8
部材(ﾋﾞｽ類)
370
     5
100
AcDbLine
 10
698.945693957387
 20
653.7075324045
 30
0.0
 11
698.945693957387
 21
653.440865737826
 31
0.0
  0
LINE
  5
1A87
330
A
100
AcDbEntity
  8
部材(ﾋﾞｽ類)
370
     5
100
AcDbLine
 10
698.945693957387
 20
653.440865737826
 30
0.0
 11
697.879027290692
 21
652.825025450653
 31
0.0
  0
LINE
  5
1A88
330
A
100
AcDbEntity
  8
部材(ﾋﾞｽ類)
370
     5
100
AcDbLine
 10
698.945693957387
 20
653.7075324045
 30
0.0
 11
697.879027290692
 21
654.323372691673
 31
0.0
  0
LINE
  5
1A89
330
A
100
AcDbEntity
  8
部材(ﾋﾞｽ類)
370
     5
100
AcDbLine
 10
697.23309618872
 20
656.178303153734
 30
0.0
 11
691.479027290348
 21
652.797787675943
 31
0.0
  0
LINE
  5
1A8A
330
A
100
AcDbEntity
  8
部材(ﾋﾞｽ類)
370
     5
100
AcDbLine
 10
697.879027290692
 20
658.11061046656
 30
0.0
 11
692.12495839232
 21
654.730094988772
 31
0.0
  0
LINE
  5
1A8B
330
A
100
AcDbEntity
  8
部材(ﾋﾞｽ類)
370
     5
100
AcDbLine
 10
697.879027290692
 20
652.825025450653
 30
0.0
 11
691.479027290348
 21
649.065025450454
 31
0.0
  0
LINE
  5
1A8C
330
A
100
AcDbEntity
  8
部材(ﾋﾞｽ類)
370
     5
100
AcDbLine
 10
691.479027290348
 20
650.563372691478
 30
0.0
 11
697.879027290692
 21
654.323372691673
 31
0.0
  0
LINE
  5
1A8D
330
A
100
AcDbEntity
  8
部材(ﾋﾞｽ類)
370
     5
100
AcDbLine
 10
691.479027290348
 20
649.065025450454
 30
0.0
 11
691.479027290348
 21
646.993246689886
 31
0.0
  0
LINE
  5
1A8E
330
A
100
AcDbEntity
  8
部材(ﾋﾞｽ類)
370
     5
100
AcDbLine
 10
691.479027290348
 20
645.277787675568
 30
0.0
 11
691.479027290348
 21
643.043372691103
 31
0.0
  0
LINE
  5
1A8F
330
A
100
AcDbEntity
  8
部材(ﾋﾞｽ類)
370
     5
100
AcDbLine
 10
697.879027290692
 20
652.825025450653
 30
0.0
 11
697.879027290692
 21
650.590610466184
 31
0.0
  0
LINE
  5
1A90
330
A
100
AcDbEntity
  8
部材(ﾋﾞｽ類)
370
     5
100
AcDbLine
 10
697.879027290692
 20
648.87515145187
 30
0.0
 11
697.879027290692
 21
646.803372691298
 31
0.0
  0
LINE
  5
1A91
330
A
100
AcDbEntity
  8
部材(ﾋﾞｽ類)
370
     5
100
AcDbLine
 10
700.279027290788
 20
649.680865737628
 30
0.0
 11
689.079027290238
 21
645.920865737451
 31
0.0
  0
LINE
  5
1A92
330
A
100
AcDbEntity
  8
部材(ﾋﾞｽ類)
370
     5
100
AcDbLine
 10
700.279027290788
 20
649.947532404305
 30
0.0
 11
689.079027290238
 21
646.187532404125
 31
0.0
  0
LINE
  5
1A93
330
A
100
AcDbEntity
  8
部材(ﾋﾞｽ類)
370
     5
100
AcDbLine
 10
698.945693957387
 20
645.920865737451
 30
0.0
 11
690.412360623639
 21
642.160865737253
 31
0.0
  0
LINE
  5
1A94
330
A
100
AcDbEntity
  8
部材(ﾋﾞｽ類)
370
     5
100
AcDbLine
 10
698.945693957387
 20
646.187532404125
 30
0.0
 11
690.412360623639
 21
642.42753240393
 31
0.0
  0
LINE
  5
1A95
330
A
100
AcDbEntity
  8
部材(ﾋﾞｽ類)
370
     5
100
AcDbLine
 10
689.079027290238
 20
646.187532404125
 30
0.0
 11
689.079027290238
 21
645.920865737451
 31
0.0
  0
LINE
  5
1A96
330
A
100
AcDbEntity
  8
部材(ﾋﾞｽ類)
370
     5
100
AcDbLine
 10
689.079027290238
 20
645.920865737451
 30
0.0
 11
691.479027290348
 21
645.277787675568
 31
0.0
  0
LINE
  5
1A97
330
A
100
AcDbEntity
  8
部材(ﾋﾞｽ類)
370
     5
100
AcDbLine
 10
690.412360623639
 20
642.42753240393
 30
0.0
 11
690.412360623639
 21
642.160865737253
 31
0.0
  0
LINE
  5
1A98
330
A
100
AcDbEntity
  8
部材(ﾋﾞｽ類)
370
     5
100
AcDbLine
 10
690.412360623639
 20
642.160865737253
 30
0.0
 11
691.479027290348
 21
641.545025450079
 31
0.0
  0
LINE
  5
1A99
330
A
100
AcDbEntity
  8
部材(ﾋﾞｽ類)
370
     5
100
AcDbLine
 10
690.412360623639
 20
642.42753240393
 30
0.0
 11
691.479027290348
 21
643.043372691103
 31
0.0
  0
LINE
  5
1A9A
330
A
100
AcDbEntity
  8
部材(ﾋﾞｽ類)
370
     5
100
AcDbLine
 10
700.279027290788
 20
649.947532404305
 30
0.0
 11
700.279027290788
 21
649.680865737628
 31
0.0
  0
LINE
  5
1A9B
330
A
100
AcDbEntity
  8
部材(ﾋﾞｽ類)
370
     5
100
AcDbLine
 10
700.279027290788
 20
649.947532404305
 30
0.0
 11
697.879027290692
 21
650.590610466184
 31
0.0
  0
LINE
  5
1A9C
330
A
100
AcDbEntity
  8
部材(ﾋﾞｽ類)
370
     5
100
AcDbLine
 10
698.945693957387
 20
646.187532404125
 30
0.0
 11
698.945693957387
 21
645.920865737451
 31
0.0
  0
LINE
  5
1A9D
330
A
100
AcDbEntity
  8
部材(ﾋﾞｽ類)
370
     5
100
AcDbLine
 10
698.945693957387
 20
645.920865737451
 30
0.0
 11
697.879027290692
 21
645.305025450278
 31
0.0
  0
LINE
  5
1A9E
330
A
100
AcDbEntity
  8
部材(ﾋﾞｽ類)
370
     5
100
AcDbLine
 10
698.945693957387
 20
646.187532404125
 30
0.0
 11
697.879027290692
 21
646.803372691298
 31
0.0
  0
LINE
  5
1A9F
330
A
100
AcDbEntity
  8
部材(ﾋﾞｽ類)
370
     5
100
AcDbLine
 10
697.23309618872
 20
648.658303153359
 30
0.0
 11
691.479027290348
 21
645.277787675568
 31
0.0
  0
LINE
  5
1AA0
330
A
100
AcDbEntity
  8
部材(ﾋﾞｽ類)
370
     5
100
AcDbLine
 10
697.879027290692
 20
650.590610466184
 30
0.0
 11
692.12495839232
 21
647.210094988397
 31
0.0
  0
LINE
  5
1AA1
330
A
100
AcDbEntity
  8
部材(ﾋﾞｽ類)
370
     5
100
AcDbLine
 10
697.879027290692
 20
645.305025450278
 30
0.0
 11
691.479027290348
 21
641.545025450079
 31
0.0
  0
LINE
  5
1AA2
330
A
100
AcDbEntity
  8
部材(ﾋﾞｽ類)
370
     5
100
AcDbLine
 10
691.479027290348
 20
643.043372691103
 30
0.0
 11
697.879027290692
 21
646.803372691298
 31
0.0
  0
LINE
  5
1AA3
330
A
100
AcDbEntity
  8
部材(ﾋﾞｽ類)
370
     5
100
AcDbLine
 10
691.479027290348
 20
641.545025450079
 30
0.0
 11
691.479027290348
 21
639.473246689511
 31
0.0
  0
LINE
  5
1AA4
330
A
100
AcDbEntity
  8
部材(ﾋﾞｽ類)
370
     5
100
AcDbLine
 10
691.479027290348
 20
637.757787675193
 30
0.0
 11
691.479027290348
 21
635.523372690728
 31
0.0
  0
LINE
  5
1AA5
330
A
100
AcDbEntity
  8
部材(ﾋﾞｽ類)
370
     5
100
AcDbLine
 10
697.879027290692
 20
645.305025450278
 30
0.0
 11
697.879027290692
 21
643.070610465809
 31
0.0
  0
LINE
  5
1AA6
330
A
100
AcDbEntity
  8
部材(ﾋﾞｽ類)
370
     5
100
AcDbLine
 10
697.879027290692
 20
641.355151451495
 30
0.0
 11
697.879027290692
 21
639.283372690905
 31
0.0
  0
LINE
  5
1AA7
330
A
100
AcDbEntity
  8
部材(ﾋﾞｽ類)
370
     5
100
AcDbLine
 10
700.279027290788
 20
642.160865737253
 30
0.0
 11
689.079027290238
 21
638.400865737076
 31
0.0
  0
LINE
  5
1AA8
330
A
100
AcDbEntity
  8
部材(ﾋﾞｽ類)
370
     5
100
AcDbLine
 10
700.279027290788
 20
642.42753240393
 30
0.0
 11
689.079027290238
 21
638.66753240375
 31
0.0
  0
LINE
  5
1AA9
330
A
100
AcDbEntity
  8
部材(ﾋﾞｽ類)
370
     5
100
AcDbLine
 10
698.945693957387
 20
638.400865737076
 30
0.0
 11
690.412360623639
 21
634.640865736877
 31
0.0
  0
LINE
  5
1AAA
330
A
100
AcDbEntity
  8
部材(ﾋﾞｽ類)
370
     5
100
AcDbLine
 10
698.945693957387
 20
638.66753240375
 30
0.0
 11
690.412360623639
 21
634.907532403555
 31
0.0
  0
LINE
  5
1AAB
330
A
100
AcDbEntity
  8
部材(ﾋﾞｽ類)
370
     5
100
AcDbLine
 10
689.079027290238
 20
638.66753240375
 30
0.0
 11
689.079027290238
 21
638.400865737076
 31
0.0
  0
LINE
  5
1AAC
330
A
100
AcDbEntity
  8
部材(ﾋﾞｽ類)
370
     5
100
AcDbLine
 10
689.079027290238
 20
638.400865737076
 30
0.0
 11
691.479027290348
 21
637.757787675193
 31
0.0
  0
LINE
  5
1AAD
330
A
100
AcDbEntity
  8
部材(ﾋﾞｽ類)
370
     5
100
AcDbLine
 10
690.412360623639
 20
634.907532403555
 30
0.0
 11
690.412360623639
 21
634.640865736877
 31
0.0
  0
LINE
  5
1AAE
330
A
100
AcDbEntity
  8
部材(ﾋﾞｽ類)
370
     5
100
AcDbLine
 10
690.412360623639
 20
634.640865736877
 30
0.0
 11
691.479027290348
 21
634.025025449704
 31
0.0
  0
LINE
  5
1AAF
330
A
100
AcDbEntity
  8
部材(ﾋﾞｽ類)
370
     5
100
AcDbLine
 10
690.412360623639
 20
634.907532403555
 30
0.0
 11
691.479027290348
 21
635.523372690728
 31
0.0
  0
LINE
  5
1AB0
330
A
100
AcDbEntity
  8
部材(ﾋﾞｽ類)
370
     5
100
AcDbLine
 10
700.279027290788
 20
642.42753240393
 30
0.0
 11
700.279027290788
 21
642.160865737253
 31
0.0
  0
LINE
  5
1AB1
330
A
100
AcDbEntity
  8
部材(ﾋﾞｽ類)
370
     5
100
AcDbLine
 10
700.279027290788
 20
642.42753240393
 30
0.0
 11
697.879027290692
 21
643.070610465809
 31
0.0
  0
LINE
  5
1AB2
330
A
100
AcDbEntity
  8
部材(ﾋﾞｽ類)
370
     5
100
AcDbLine
 10
698.945693957387
 20
638.66753240375
 30
0.0
 11
698.945693957387
 21
638.400865737076
 31
0.0
  0
LINE
  5
1AB3
330
A
100
AcDbEntity
  8
部材(ﾋﾞｽ類)
370
     5
100
AcDbLine
 10
698.945693957387
 20
638.400865737076
 30
0.0
 11
697.879027290692
 21
637.785025449903
 31
0.0
  0
LINE
  5
1AB4
330
A
100
AcDbEntity
  8
部材(ﾋﾞｽ類)
370
     5
100
AcDbLine
 10
698.945693957387
 20
638.66753240375
 30
0.0
 11
697.879027290692
 21
639.283372690905
 31
0.0
  0
LINE
  5
1AB5
330
A
100
AcDbEntity
  8
部材(ﾋﾞｽ類)
370
     5
100
AcDbLine
 10
697.23309618872
 20
641.138303152984
 30
0.0
 11
691.479027290348
 21
637.757787675193
 31
0.0
  0
LINE
  5
1AB6
330
A
100
AcDbEntity
  8
部材(ﾋﾞｽ類)
370
     5
100
AcDbLine
 10
697.879027290692
 20
643.070610465809
 30
0.0
 11
692.12495839232
 21
639.690094988022
 31
0.0
  0
LINE
  5
1AB7
330
A
100
AcDbEntity
  8
部材(ﾋﾞｽ類)
370
     5
100
AcDbLine
 10
697.879027290692
 20
637.785025449903
 30
0.0
 11
691.479027290348
 21
634.025025449704
 31
0.0
  0
LINE
  5
1AB8
330
A
100
AcDbEntity
  8
部材(ﾋﾞｽ類)
370
     5
100
AcDbLine
 10
691.479027290348
 20
635.523372690728
 30
0.0
 11
697.879027290692
 21
639.283372690905
 31
0.0
  0
LINE
  5
1AB9
330
A
100
AcDbEntity
  8
部材(ﾋﾞｽ類)
370
     5
100
AcDbLine
 10
691.479027290348
 20
634.025025449704
 30
0.0
 11
691.479027290348
 21
631.953246689136
 31
0.0
  0
LINE
  5
1ABA
330
A
100
AcDbEntity
  8
部材(ﾋﾞｽ類)
370
     5
100
AcDbLine
 10
691.479027290348
 20
630.237787674818
 30
0.0
 11
691.479027290348
 21
628.003372690353
 31
0.0
  0
LINE
  5
1ABB
330
A
100
AcDbEntity
  8
部材(ﾋﾞｽ類)
370
     5
100
AcDbLine
 10
697.879027290692
 20
637.785025449903
 30
0.0
 11
697.879027290692
 21
635.550610465434
 31
0.0
  0
LINE
  5
1ABC
330
A
100
AcDbEntity
  8
部材(ﾋﾞｽ類)
370
     5
100
AcDbLine
 10
697.879027290692
 20
633.83515145112
 30
0.0
 11
697.879027290692
 21
631.76337269053
 31
0.0
  0
LINE
  5
1ABD
330
A
100
AcDbEntity
  8
部材(ﾋﾞｽ類)
370
     5
100
AcDbLine
 10
700.279027290788
 20
634.640865736877
 30
0.0
 11
689.079027290238
 21
630.880865736701
 31
0.0
  0
LINE
  5
1ABE
330
A
100
AcDbEntity
  8
部材(ﾋﾞｽ類)
370
     5
100
AcDbLine
 10
700.279027290788
 20
634.907532403555
 30
0.0
 11
689.079027290238
 21
631.147532403374
 31
0.0
  0
LINE
  5
1ABF
330
A
100
AcDbEntity
  8
部材(ﾋﾞｽ類)
370
     5
100
AcDbLine
 10
698.945693957314
 20
630.88086573665
 30
0.0
 11
690.412360623639
 21
627.120865736502
 31
0.0
  0
LINE
  5
1AC0
330
A
100
AcDbEntity
  8
部材(ﾋﾞｽ類)
370
     5
100
AcDbLine
 10
698.945693957387
 20
631.147532403374
 30
0.0
 11
690.412360623639
 21
627.38753240318
 31
0.0
  0
LINE
  5
1AC1
330
A
100
AcDbEntity
  8
部材(ﾋﾞｽ類)
370
     5
100
AcDbLine
 10
689.079027290238
 20
631.147532403374
 30
0.0
 11
689.079027290238
 21
630.880865736701
 31
0.0
  0
LINE
  5
1AC2
330
A
100
AcDbEntity
  8
部材(ﾋﾞｽ類)
370
     5
100
AcDbLine
 10
689.079027290238
 20
630.880865736701
 30
0.0
 11
691.479027290348
 21
630.237787674818
 31
0.0
  0
LINE
  5
1AC3
330
A
100
AcDbEntity
  8
部材(ﾋﾞｽ類)
370
     5
100
AcDbLine
 10
690.412360623639
 20
627.38753240318
 30
0.0
 11
690.412360623639
 21
627.120865736502
 31
0.0
  0
LINE
  5
1AC4
330
A
100
AcDbEntity
  8
部材(ﾋﾞｽ類)
370
     5
100
AcDbLine
 10
690.412360623639
 20
627.120865736502
 30
0.0
 11
691.479027290348
 21
626.505025449329
 31
0.0
  0
LINE
  5
1AC5
330
A
100
AcDbEntity
  8
部材(ﾋﾞｽ類)
370
     5
100
AcDbLine
 10
690.412360623639
 20
627.38753240318
 30
0.0
 11
691.479027290348
 21
628.003372690353
 31
0.0
  0
LINE
  5
1AC6
330
A
100
AcDbEntity
  8
部材(ﾋﾞｽ類)
370
     5
100
AcDbLine
 10
700.279027290788
 20
634.907532403555
 30
0.0
 11
700.279027290788
 21
634.640865736877
 31
0.0
  0
LINE
  5
1AC7
330
A
100
AcDbEntity
  8
部材(ﾋﾞｽ類)
370
     5
100
AcDbLine
 10
700.279027290788
 20
634.907532403555
 30
0.0
 11
697.879027290692
 21
635.550610465434
 31
0.0
  0
LINE
  5
1AC8
330
A
100
AcDbEntity
  8
部材(ﾋﾞｽ類)
370
     5
100
AcDbLine
 10
698.945693957387
 20
631.147532403374
 30
0.0
 11
698.945693957387
 21
630.880865736701
 31
0.0
  0
LINE
  5
1AC9
330
A
100
AcDbEntity
  8
部材(ﾋﾞｽ類)
370
     5
100
AcDbLine
 10
698.945693957387
 20
630.880865736701
 30
0.0
 11
697.879027290692
 21
630.265025449527
 31
0.0
  0
LINE
  5
1ACA
330
A
100
AcDbEntity
  8
部材(ﾋﾞｽ類)
370
     5
100
AcDbLine
 10
698.945693957387
 20
631.147532403374
 30
0.0
 11
697.879027290692
 21
631.76337269053
 31
0.0
  0
LINE
  5
1ACB
330
A
100
AcDbEntity
  8
部材(ﾋﾞｽ類)
370
     5
100
AcDbLine
 10
697.23309618872
 20
633.618303152609
 30
0.0
 11
691.479027290348
 21
630.237787674818
 31
0.0
  0
LINE
  5
1ACC
330
A
100
AcDbEntity
  8
部材(ﾋﾞｽ類)
370
     5
100
AcDbLine
 10
697.879027290692
 20
635.550610465434
 30
0.0
 11
692.12495839232
 21
632.170094987647
 31
0.0
  0
LINE
  5
1ACD
330
A
100
AcDbEntity
  8
部材(ﾋﾞｽ類)
370
     5
100
AcDbLine
 10
697.879027290794
 20
630.265025449586
 30
0.0
 11
691.479027290348
 21
626.505025449329
 31
0.0
  0
LINE
  5
1ACE
330
A
100
AcDbEntity
  8
部材(ﾋﾞｽ類)
370
     5
100
AcDbLine
 10
691.479027290348
 20
628.003372690353
 30
0.0
 11
697.879027290692
 21
631.76337269053
 31
0.0
  0
LINE
  5
1ACF
330
A
100
AcDbEntity
  8
部材(ﾋﾞｽ類)
370
     5
100
AcDbLine
 10
691.479027290348
 20
626.505025449329
 30
0.0
 11
691.479027290348
 21
624.433246688739
 31
0.0
  0
LINE
  5
1AD0
330
A
100
AcDbEntity
  8
部材(ﾋﾞｽ類)
370
     5
100
AcDbLine
 10
691.479027290348
 20
622.717787674443
 30
0.0
 11
691.479027290348
 21
620.483372689978
 31
0.0
  0
LINE
  5
1AD1
330
A
100
AcDbEntity
  8
部材(ﾋﾞｽ類)
370
     5
100
AcDbLine
 10
697.879027290692
 20
630.265025449527
 30
0.0
 11
697.879027290692
 21
628.030610465041
 31
0.0
  0
LINE
  5
1AD2
330
A
100
AcDbEntity
  8
部材(ﾋﾞｽ類)
370
     5
100
AcDbLine
 10
697.879027290692
 20
626.315151450744
 30
0.0
 11
697.879027290692
 21
624.243372690155
 31
0.0
  0
LINE
  5
1AD3
330
A
100
AcDbEntity
  8
部材(ﾋﾞｽ類)
370
     5
100
AcDbLine
 10
700.279027290788
 20
627.120865736499
 30
0.0
 11
689.079027290238
 21
623.360865736326
 31
0.0
  0
LINE
  5
1AD4
330
A
100
AcDbEntity
  8
部材(ﾋﾞｽ類)
370
     5
100
AcDbLine
 10
700.279027290788
 20
627.38753240318
 30
0.0
 11
689.079027290238
 21
623.627532402999
 31
0.0
  0
LINE
  5
1AD5
330
A
100
AcDbEntity
  8
部材(ﾋﾞｽ類)
370
     5
100
AcDbLine
 10
698.945693957387
 20
623.360865736333
 30
0.0
 11
690.412360623639
 21
619.600865736127
 31
0.0
  0
LINE
  5
1AD6
330
A
100
AcDbEntity
  8
部材(ﾋﾞｽ類)
370
     5
100
AcDbLine
 10
698.945693957387
 20
623.627532402996
 30
0.0
 11
690.412360623639
 21
619.867532402804
 31
0.0
  0
LINE
  5
1AD7
330
A
100
AcDbEntity
  8
部材(ﾋﾞｽ類)
370
     5
100
AcDbLine
 10
689.079027290238
 20
623.627532402999
 30
0.0
 11
689.079027290238
 21
623.360865736326
 31
0.0
  0
LINE
  5
1AD8
330
A
100
AcDbEntity
  8
部材(ﾋﾞｽ類)
370
     5
100
AcDbLine
 10
689.079027290238
 20
623.360865736326
 30
0.0
 11
691.479027290348
 21
622.717787674443
 31
0.0
  0
LINE
  5
1AD9
330
A
100
AcDbEntity
  8
部材(ﾋﾞｽ類)
370
     5
100
AcDbLine
 10
690.412360623639
 20
619.867532402804
 30
0.0
 11
690.412360623639
 21
619.600865736127
 31
0.0
  0
LINE
  5
1ADA
330
A
100
AcDbEntity
  8
部材(ﾋﾞｽ類)
370
     5
100
AcDbLine
 10
690.412360623639
 20
619.600865736127
 30
0.0
 11
691.479027290348
 21
618.985025448954
 31
0.0
  0
LINE
  5
1ADB
330
A
100
AcDbEntity
  8
部材(ﾋﾞｽ類)
370
     5
100
AcDbLine
 10
690.412360623639
 20
619.867532402804
 30
0.0
 11
691.479027290348
 21
620.483372689978
 31
0.0
  0
LINE
  5
1ADC
330
A
100
AcDbEntity
  8
部材(ﾋﾞｽ類)
370
     5
100
AcDbLine
 10
700.279027290788
 20
627.38753240318
 30
0.0
 11
700.279027290788
 21
627.120865736502
 31
0.0
  0
LINE
  5
1ADD
330
A
100
AcDbEntity
  8
部材(ﾋﾞｽ類)
370
     5
100
AcDbLine
 10
700.279027290788
 20
627.38753240318
 30
0.0
 11
697.879027290692
 21
628.030610465041
 31
0.0
  0
LINE
  5
1ADE
330
A
100
AcDbEntity
  8
部材(ﾋﾞｽ類)
370
     5
100
AcDbLine
 10
698.945693957387
 20
623.627532402999
 30
0.0
 11
698.945693957387
 21
623.360865736326
 31
0.0
  0
LINE
  5
1ADF
330
A
100
AcDbEntity
  8
部材(ﾋﾞｽ類)
370
     5
100
AcDbLine
 10
698.945693957387
 20
623.360865736326
 30
0.0
 11
697.879027290692
 21
622.745025449152
 31
0.0
  0
LINE
  5
1AE0
330
A
100
AcDbEntity
  8
部材(ﾋﾞｽ類)
370
     5
100
AcDbLine
 10
698.945693957387
 20
623.627532402999
 30
0.0
 11
697.879027290692
 21
624.243372690155
 31
0.0
  0
LINE
  5
1AE1
330
A
100
AcDbEntity
  8
部材(ﾋﾞｽ類)
370
     5
100
AcDbLine
 10
697.233096188735
 20
626.098303152237
 30
0.0
 11
691.479027290348
 21
622.717787674443
 31
0.0
  0
LINE
  5
1AE2
330
A
100
AcDbEntity
  8
部材(ﾋﾞｽ類)
370
     5
100
AcDbLine
 10
697.879027290677
 20
628.030610465044
 30
0.0
 11
692.12495839232
 21
624.650094987272
 31
0.0
  0
LINE
  5
1AE3
330
A
100
AcDbEntity
  8
部材(ﾋﾞｽ類)
370
     5
100
AcDbLine
 10
697.879027290168
 20
622.745025448858
 30
0.0
 11
691.479027290348
 21
618.985025448954
 31
0.0
  0
LINE
  5
1AE4
330
A
100
AcDbEntity
  8
部材(ﾋﾞｽ類)
370
     5
100
AcDbLine
 10
691.479027290348
 20
620.483372689978
 30
0.0
 11
697.879027290692
 21
624.243372690155
 31
0.0
  0
LINE
  5
1AE5
330
A
100
AcDbEntity
  8
部材(ﾋﾞｽ類)
370
     5
100
AcDbLine
 10
691.479027290348
 20
618.701799614475
 30
0.0
 11
691.908573540131
 21
616.764241692923
 31
0.0
  0
LINE
  5
1AE6
330
A
100
AcDbEntity
  8
部材(ﾋﾞｽ類)
370
     5
100
AcDbLine
 10
692.238076710128
 20
615.277948942061
 30
0.0
 11
692.738522013227
 21
613.020586057752
 31
0.0
  0
LINE
  5
1AE7
330
A
100
AcDbEntity
  8
部材(ﾋﾞｽ類)
370
     5
100
AcDbLine
 10
697.879027290692
 20
622.745025449152
 30
0.0
 11
697.879027290692
 21
620.510610464666
 31
0.0
  0
LINE
  5
1AE8
330
A
100
AcDbEntity
  8
部材(ﾋﾞｽ類)
370
     5
100
AcDbLine
 10
697.879027290692
 20
618.701799614475
 30
0.0
 11
697.398702462757
 21
616.535194328666
 31
0.0
  0
LINE
  5
1AE9
330
A
100
AcDbEntity
  8
部材(ﾋﾞｽ類)
370
     5
100
AcDbLine
 10
700.279027290788
 20
619.600865736131
 30
0.0
 11
690.137242634955
 21
615.840865735929
 31
0.0
  0
LINE
  5
1AEA
330
A
100
AcDbEntity
  8
部材(ﾋﾞｽ類)
370
     5
100
AcDbLine
 10
700.279027290788
 20
619.867532402797
 30
0.0
 11
690.137242634955
 21
616.107532402624
 31
0.0
  0
LINE
  5
1AEB
330
A
100
AcDbEntity
  8
部材(ﾋﾞｽ類)
370
     5
100
AcDbLine
 10
698.13943464715
 20
615.840865735951
 30
0.0
 11
691.595993515206
 21
612.080865735752
 31
0.0
  0
LINE
  5
1AEC
330
A
100
AcDbEntity
  8
部材(ﾋﾞｽ類)
370
     5
100
AcDbLine
 10
698.139434647135
 20
616.107532402635
 30
0.0
 11
691.595993515206
 21
612.347532402429
 31
0.0
  0
LINE
  5
1AED
330
A
100
AcDbEntity
  8
部材(ﾋﾞｽ類)
370
     5
100
AcDbLine
 10
690.137242634955
 20
616.107532402624
 30
0.0
 11
690.137242634955
 21
615.840865735929
 31
0.0
  0
LINE
  5
1AEE
330
A
100
AcDbEntity
  8
部材(ﾋﾞｽ類)
370
     5
100
AcDbLine
 10
690.137242634955
 20
615.840865735929
 30
0.0
 11
692.238076710128
 21
615.277948942061
 31
0.0
  0
LINE
  5
1AEF
330
A
100
AcDbEntity
  8
部材(ﾋﾞｽ類)
370
     5
100
AcDbLine
 10
691.595993515206
 20
612.347532402429
 30
0.0
 11
691.595993515206
 21
612.080865735752
 31
0.0
  0
LINE
  5
1AF0
330
A
100
AcDbEntity
  8
部材(ﾋﾞｽ類)
370
     5
100
AcDbLine
 10
691.595993515206
 20
612.080865735752
 30
0.0
 11
693.139364693925
 21
611.21250156924
 31
0.0
  0
LINE
  5
1AF1
330
A
100
AcDbEntity
  8
部材(ﾋﾞｽ類)
370
     5
100
AcDbLine
 10
691.595993515206
 20
612.347532402429
 30
0.0
 11
692.738522013227
 21
613.020586057752
 31
0.0
  0
LINE
  5
1AF2
330
A
100
AcDbEntity
  8
部材(ﾋﾞｽ類)
370
     5
100
AcDbLine
 10
700.279027290788
 20
619.867532402804
 30
0.0
 11
700.279027290788
 21
619.600865736127
 31
0.0
  0
LINE
  5
1AF3
330
A
100
AcDbEntity
  8
部材(ﾋﾞｽ類)
370
     5
100
AcDbLine
 10
700.279027290788
 20
619.867532402804
 30
0.0
 11
697.879027290692
 21
620.510610464666
 31
0.0
  0
LINE
  5
1AF4
330
A
100
AcDbEntity
  8
部材(ﾋﾞｽ類)
370
     5
100
AcDbLine
 10
698.13943464715
 20
616.107532402624
 30
0.0
 11
698.13943464715
 21
615.840865735929
 31
0.0
  0
LINE
  5
1AF5
330
A
100
AcDbEntity
  8
部材(ﾋﾞｽ類)
370
     5
100
AcDbLine
 10
698.13943464715
 20
615.840865735929
 30
0.0
 11
697.113452441816
 21
615.248514633513
 31
0.0
  0
LINE
  5
1AF6
330
A
100
AcDbEntity
  8
部材(ﾋﾞｽ類)
370
     5
100
AcDbLine
 10
698.13943464715
 20
616.107532402624
 30
0.0
 11
697.398702462757
 21
616.535194328666
 31
0.0
  0
LINE
  5
1AF7
330
A
100
AcDbEntity
  8
部材(ﾋﾞｽ類)
370
     5
100
AcDbLine
 10
697.002941000072
 20
618.386278277241
 30
0.0
 11
692.238076710128
 21
615.277948942061
 31
0.0
  0
LINE
  5
1AF8
330
A
100
AcDbEntity
  8
部材(ﾋﾞｽ類)
370
     5
100
AcDbLine
 10
697.879027290677
 20
620.510610464669
 30
0.0
 11
692.588621241768
 21
617.016364908424
 31
0.0
  0
LINE
  5
1AF9
330
A
100
AcDbEntity
  8
部材(ﾋﾞｽ類)
370
     5
100
AcDbLine
 10
697.113452441903
 20
615.248514633568
 30
0.0
 11
693.139364693925
 21
611.21250156924
 31
0.0
  0
LINE
  5
1AFA
330
A
100
AcDbEntity
  8
部材(ﾋﾞｽ類)
370
     5
100
AcDbLine
 10
692.738522013227
 20
613.020586057752
 30
0.0
 11
697.398702462728
 21
616.535194328677
 31
0.0
  0
LINE
  5
1AFB
330
A
100
AcDbEntity
  8
部材(ﾋﾞｽ類)
370
     5
100
AcDbLine
 10
693.139364693925
 20
611.21250156924
 30
0.0
 11
693.621028689508
 21
609.039855688465
 31
0.0
  0
LINE
  5
1AFC
330
A
100
AcDbEntity
  8
部材(ﾋﾞｽ類)
370
     5
100
AcDbLine
 10
693.826254889806
 20
608.114140121652
 30
0.0
 11
694.554654670093
 21
604.828541038682
 31
0.0
  0
LINE
  5
1AFD
330
A
100
AcDbEntity
  8
部材(ﾋﾞｽ類)
370
     5
100
AcDbLine
 10
697.113452441816
 20
615.248514633513
 30
0.0
 11
696.542750741151
 21
612.674245619248
 31
0.0
  0
LINE
  5
1AFE
330
A
100
AcDbEntity
  8
部材(ﾋﾞｽ類)
370
     5
100
AcDbLine
 10
696.120516832074
 20
610.769671534996
 30
0.0
 11
695.66850076156
 21
608.730758802005
 31
0.0
  0
LINE
  5
1AFF
330
A
100
AcDbEntity
  8
部材(ﾋﾞｽ類)
370
     5
100
AcDbLine
 10
697.76206106582
 20
612.080865735763
 30
0.0
 11
693.054744395471
 21
608.320865735554
 31
0.0
  0
LINE
  5
1B00
330
A
100
AcDbEntity
  8
部材(ﾋﾞｽ類)
370
     5
100
AcDbLine
 10
697.76206106582
 20
612.34753240236
 30
0.0
 11
693.054744395471
 21
608.587532402249
 31
0.0
  0
LINE
  5
1B01
330
A
100
AcDbEntity
  8
部材(ﾋﾞｽ類)
370
     5
100
AcDbLine
 10
695.916576162927
 20
608.320865734557
 30
0.0
 11
694.552907660196
 21
604.560865735377
 31
0.0
  0
LINE
  5
1B02
330
A
100
AcDbEntity
  8
部材(ﾋﾞｽ類)
370
     5
100
AcDbLine
 10
695.916576162927
 20
608.587532401751
 30
0.0
 11
694.552907660196
 21
604.827532402054
 31
0.0
  0
LINE
  5
1B03
330
A
100
AcDbEntity
  8
部材(ﾋﾞｽ類)
370
     5
100
AcDbLine
 10
693.054744395471
 20
608.587532402249
 30
0.0
 11
693.054744395471
 21
608.320865735554
 31
0.0
  0
LINE
  5
1B04
330
A
100
AcDbEntity
  8
部材(ﾋﾞｽ類)
370
     5
100
AcDbLine
 10
693.054744395471
 20
608.320865735554
 30
0.0
 11
693.826254889806
 21
608.114140121652
 31
0.0
  0
LINE
  5
1B05
330
A
100
AcDbEntity
  8
部材(ﾋﾞｽ類)
370
     5
100
AcDbLine
 10
694.552907660196
 20
604.827532402054
 30
0.0
 11
694.552907660196
 21
604.560865735377
 31
0.0
  0
LINE
  5
1B06
330
A
100
AcDbEntity
  8
部材(ﾋﾞｽ類)
370
     5
100
AcDbLine
 10
694.552907660196
 20
604.560865735377
 30
0.0
 11
694.67902729052
 21
604.267532402027
 31
0.0
  0
LINE
  5
1B07
330
A
100
AcDbEntity
  8
部材(ﾋﾞｽ類)
370
     5
100
AcDbLine
 10
694.552907660196
 20
604.827532402054
 30
0.0
 11
694.554654670093
 21
604.828541038682
 31
0.0
  0
LINE
  5
1B08
330
A
100
AcDbEntity
  8
部材(ﾋﾞｽ類)
370
     5
100
AcDbLine
 10
697.76206106582
 20
612.347532402429
 30
0.0
 11
697.76206106582
 21
612.080865735752
 31
0.0
  0
LINE
  5
1B09
330
A
100
AcDbEntity
  8
部材(ﾋﾞｽ類)
370
     5
100
AcDbLine
 10
697.76206106582
 20
612.347532402429
 30
0.0
 11
696.542750741151
 21
612.674245619248
 31
0.0
  0
LINE
  5
1B0A
330
A
100
AcDbEntity
  8
部材(ﾋﾞｽ類)
370
     5
100
AcDbLine
 10
695.916576162927
 20
608.587532402249
 30
0.0
 11
695.916576162927
 21
608.320865735554
 31
0.0
  0
LINE
  5
1B0B
330
A
100
AcDbEntity
  8
部材(ﾋﾞｽ類)
370
     5
100
AcDbLine
 10
695.916576162927
 20
608.587532402249
 30
0.0
 11
695.66850076156
 21
608.730758802005
 31
0.0
  0
LINE
  5
1B0C
330
A
100
AcDbEntity
  8
部材(ﾋﾞｽ類)
370
     5
100
AcDbLine
 10
695.123882006985
 20
609.973602945418
 30
0.0
 11
693.826254889806
 21
608.114140121652
 31
0.0
  0
LINE
  5
1B0D
330
A
100
AcDbEntity
  8
部材(ﾋﾞｽ類)
370
     5
100
AcDbLine
 10
694.818531637618
 20
605.293262320658
 30
0.0
 11
694.622963713875
 21
604.520418853936
 31
0.0
  0
LINE
  5
1B0E
330
A
100
AcDbEntity
  8
部材(ﾋﾞｽ類)
370
     5
100
AcDbLine
 10
694.554654670093
 20
604.828541038682
 30
0.0
 11
695.668500761429
 21
608.730758802081
 31
0.0
  0
LINE
  5
1B0F
330
A
100
AcDbEntity
  8
部材(ﾋﾞｽ類)
370
     5
100
AcDbLine
 10
694.622963713875
 20
604.520418853936
 30
0.0
 11
694.67902729052
 21
604.267532402027
 31
0.0
  0
LINE
  5
1B10
330
A
100
AcDbEntity
  8
部材(ﾋﾞｽ類)
370
     5
100
AcDbLine
 10
695.044639425119
 20
605.916702166669
 30
0.0
 11
694.67902729052
 21
604.267532402027
 31
0.0
  0
LINE
  5
1B11
330
A
100
AcDbEntity
  8
部材(ﾋﾞｽ類)
370
     5
100
AcDbLine
 10
691.479027290348
 20
618.701799614475
 30
0.0
 11
691.479027290348
 21
618.985025448954
 31
0.0
  0
LINE
  5
1B12
330
A
100
AcDbEntity
  8
部材(ﾋﾞｽ類)
370
     5
100
AcDbLine
 10
697.879027290692
 20
618.701799614475
 30
0.0
 11
697.879027290692
 21
618.711081511054
 31
0.0
  0
LINE
  5
1B13
330
A
100
AcDbEntity
  8
部材(ﾋﾞｽ類)
370
     5
100
AcDbLine
 10
700.279027290788
 20
627.120865736502
 30
0.0
 11
697.879027290692
 21
626.315151450744
 31
0.0
  0
LINE
  5
1B14
330
A
100
AcDbEntity
  8
部材(ﾋﾞｽ類)
370
     5
100
AcDbLine
 10
700.279027290788
 20
619.600865736127
 30
0.0
 11
697.879027290692
 21
618.711081511054
 31
0.0
  0
LINE
  5
1B15
330
A
100
AcDbEntity
  8
部材(ﾋﾞｽ類)
370
     5
100
AcDbLine
 10
697.76206106582
 20
612.080865735752
 30
0.0
 11
696.120516832074
 21
610.769671534996
 31
0.0
  0
LINE
  5
1B16
330
A
100
AcDbEntity
  8
部材(ﾋﾞｽ類)
370
     5
100
AcDbLine
 10
700.279027290788
 20
664.987532405055
 30
0.0
 11
700.279027290788
 21
664.720865738378
 31
0.0
  0
LINE
  5
1B17
330
A
100
AcDbEntity
  8
部材(ﾋﾞｽ類)
100
AcDbLine
 10
690.77236062364
 20
791.756927028822
 30
0.0
 11
698.585693957386
 21
791.756927028822
 31
0.0
  0
LINE
  5
1B18
330
A
100
AcDbEntity
  8
部材(ﾋﾞｽ類)
370
     5
100
AcDbLine
 10
691.479027290348
 20
705.437787678591
 30
0.0
 11
691.479027290348
 21
703.203372694104
 31
0.0
  0
LINE
  5
1B19
330
A
100
AcDbEntity
  8
部材(ﾋﾞｽ類)
370
     5
100
AcDbLine
 10
691.479027290348
 20
701.705025453102
 30
0.0
 11
691.479027290348
 21
699.633246692512
 31
0.0
  0
LINE
  5
1B1A
330
A
100
AcDbEntity
  8
部材(ﾋﾞｽ類)
370
     5
100
AcDbLine
 10
691.479027290348
 20
697.917787678216
 30
0.0
 11
691.479027290348
 21
695.683372693729
 31
0.0
  0
LINE
  5
1B1B
330
A
100
AcDbEntity
  8
部材(ﾋﾞｽ類)
370
     5
100
AcDbLine
 10
698.081029588066
 20
709.102966511855
 30
0.0
 11
697.929381692375
 21
706.934300566918
 31
0.0
  0
LINE
  5
1B1C
330
A
100
AcDbEntity
  8
部材(ﾋﾞｽ類)
370
     5
100
AcDbLine
 10
697.879027290692
 20
705.465025453279
 30
0.0
 11
697.879027290692
 21
703.23061046881
 31
0.0
  0
LINE
  5
1B1D
330
A
100
AcDbEntity
  8
部材(ﾋﾞｽ類)
370
     5
100
AcDbLine
 10
697.879027290692
 20
701.515151454514
 30
0.0
 11
697.879027290692
 21
699.443372693924
 31
0.0
  0
LINE
  5
1B1E
330
A
100
AcDbEntity
  8
部材(ﾋﾞｽ類)
100
AcDbLine
 10
698.585693957386
 20
709.974199073979
 30
0.0
 11
690.77236062364
 21
709.974199073979
 31
0.0
  0
LINE
  5
1B1F
330
A
100
AcDbEntity
  8
部材(ﾋﾞｽ類)
370
     5
100
AcDbLine
 10
698.860247266231
 20
709.364561018101
 30
0.0
 11
689.079027290238
 21
706.080865740452
 31
0.0
  0
LINE
  5
1B20
330
A
100
AcDbEntity
  8
部材(ﾋﾞｽ類)
370
     5
100
AcDbLine
 10
696.853789170491
 20
709.974199073979
 30
0.0
 11
689.079027290238
 21
706.34753240713
 31
0.0
  0
LINE
  5
1B21
330
A
100
AcDbEntity
  8
部材(ﾋﾞｽ類)
370
     5
100
AcDbLine
 10
698.945693957387
 20
706.080865740452
 30
0.0
 11
690.412360623639
 21
702.320865740254
 31
0.0
  0
LINE
  5
1B22
330
A
100
AcDbEntity
  8
部材(ﾋﾞｽ類)
370
     5
100
AcDbLine
 10
698.945693957387
 20
706.34753240713
 30
0.0
 11
690.412360623639
 21
702.587532406949
 31
0.0
  0
LINE
  5
1B23
330
A
100
AcDbEntity
  8
部材(ﾋﾞｽ類)
370
     5
100
AcDbLine
 10
689.079027290238
 20
706.34753240713
 30
0.0
 11
689.079027290238
 21
706.080865740452
 31
0.0
  0
LINE
  5
1B24
330
A
100
AcDbEntity
  8
部材(ﾋﾞｽ類)
370
     5
100
AcDbLine
 10
689.079027290238
 20
706.080865740452
 30
0.0
 11
691.479027290348
 21
705.437787678591
 31
0.0
  0
LINE
  5
1B25
330
A
100
AcDbEntity
  8
部材(ﾋﾞｽ類)
370
     5
100
AcDbLine
 10
690.412360623639
 20
702.587532406949
 30
0.0
 11
690.412360623639
 21
702.320865740254
 31
0.0
  0
LINE
  5
1B26
330
A
100
AcDbEntity
  8
部材(ﾋﾞｽ類)
370
     5
100
AcDbLine
 10
690.412360623639
 20
702.320865740254
 30
0.0
 11
691.479027290348
 21
701.705025453102
 31
0.0
  0
LINE
  5
1B27
330
A
100
AcDbEntity
  8
部材(ﾋﾞｽ類)
370
     5
100
AcDbLine
 10
690.412360623639
 20
702.587532406949
 30
0.0
 11
691.479027290348
 21
703.203372694104
 31
0.0
  0
LINE
  5
1B28
330
A
100
AcDbEntity
  8
部材(ﾋﾞｽ類)
370
     5
100
AcDbLine
 10
698.585693957386
 20
709.974199073979
 30
0.0
 11
698.860247266231
 21
709.364561018101
 31
0.0
  0
LINE
  5
1B29
330
A
100
AcDbEntity
  8
部材(ﾋﾞｽ類)
370
     5
100
AcDbLine
 10
698.945693957387
 20
706.34753240713
 30
0.0
 11
698.945693957387
 21
706.080865740452
 31
0.0
  0
LINE
  5
1B2A
330
A
100
AcDbEntity
  8
部材(ﾋﾞｽ類)
370
     5
100
AcDbLine
 10
698.945693957387
 20
706.080865740452
 30
0.0
 11
697.879027290692
 21
705.465025453279
 31
0.0
  0
LINE
  5
1B2B
330
A
100
AcDbEntity
  8
部材(ﾋﾞｽ類)
370
     5
100
AcDbLine
 10
698.945693957387
 20
706.34753240713
 30
0.0
 11
697.929381692375
 21
706.934300566918
 31
0.0
  0
LINE
  5
1B2C
330
A
100
AcDbEntity
  8
部材(ﾋﾞｽ類)
370
     5
100
AcDbLine
 10
697.477890676018
 20
708.900484162819
 30
0.0
 11
691.479027290348
 21
705.437787678591
 31
0.0
  0
LINE
  5
1B2D
330
A
100
AcDbEntity
  8
部材(ﾋﾞｽ類)
370
     5
100
AcDbLine
 10
696.55151299818
 20
709.974199073979
 30
0.0
 11
695.360564171773
 21
709.277659499854
 31
0.0
  0
LINE
  5
1B2E
330
A
100
AcDbEntity
  8
部材(ﾋﾞｽ類)
370
     5
100
AcDbLine
 10
697.879027290692
 20
705.465025453279
 30
0.0
 11
691.479027290348
 21
701.705025453102
 31
0.0
  0
LINE
  5
1B2F
330
A
100
AcDbEntity
  8
部材(ﾋﾞｽ類)
370
     5
100
AcDbLine
 10
691.479027290348
 20
703.203372694104
 30
0.0
 11
697.929381692375
 21
706.934300566918
 31
0.0
  0
LINE
  5
1B30
330
A
100
AcDbEntity
  8
部材(ﾋﾞｽ類)
370
     5
100
AcDbLine
 10
700.279027290788
 20
702.320865740254
 30
0.0
 11
689.079027290238
 21
698.560865740077
 31
0.0
  0
LINE
  5
1B31
330
A
100
AcDbEntity
  8
部材(ﾋﾞｽ類)
370
     5
100
AcDbLine
 10
700.279027290788
 20
702.587532406949
 30
0.0
 11
689.079027290238
 21
698.827532406754
 31
0.0
  0
LINE
  5
1B32
330
A
100
AcDbEntity
  8
部材(ﾋﾞｽ類)
370
     5
100
AcDbLine
 10
698.945693957387
 20
698.560865740077
 30
0.0
 11
690.412360623639
 21
694.800865739879
 31
0.0
  0
LINE
  5
1B33
330
A
100
AcDbEntity
  8
部材(ﾋﾞｽ類)
370
     5
100
AcDbLine
 10
698.945693957387
 20
698.827532406754
 30
0.0
 11
690.412360623639
 21
695.067532406574
 31
0.0
  0
LINE
  5
1B34
330
A
100
AcDbEntity
  8
部材(ﾋﾞｽ類)
370
     5
100
AcDbLine
 10
689.079027290238
 20
698.827532406754
 30
0.0
 11
689.079027290238
 21
698.560865740077
 31
0.0
  0
LINE
  5
1B35
330
A
100
AcDbEntity
  8
部材(ﾋﾞｽ類)
370
     5
100
AcDbLine
 10
689.079027290238
 20
698.560865740077
 30
0.0
 11
691.479027290348
 21
697.917787678216
 31
0.0
  0
LINE
  5
1B36
330
A
100
AcDbEntity
  8
部材(ﾋﾞｽ類)
370
     5
100
AcDbLine
 10
690.412360623639
 20
695.067532406574
 30
0.0
 11
690.412360623639
 21
694.800865739879
 31
0.0
  0
LINE
  5
1B37
330
A
100
AcDbEntity
  8
部材(ﾋﾞｽ類)
370
     5
100
AcDbLine
 10
690.412360623639
 20
694.800865739879
 30
0.0
 11
691.479027290348
 21
694.185025452727
 31
0.0
  0
LINE
  5
1B38
330
A
100
AcDbEntity
  8
部材(ﾋﾞｽ類)
370
     5
100
AcDbLine
 10
690.412360623639
 20
695.067532406574
 30
0.0
 11
691.479027290348
 21
695.683372693729
 31
0.0
  0
LINE
  5
1B39
330
A
100
AcDbEntity
  8
部材(ﾋﾞｽ類)
370
     5
100
AcDbLine
 10
700.279027290788
 20
702.587532406949
 30
0.0
 11
700.279027290788
 21
702.320865740254
 31
0.0
  0
LINE
  5
1B3A
330
A
100
AcDbEntity
  8
部材(ﾋﾞｽ類)
370
     5
100
AcDbLine
 10
700.279027290788
 20
702.587532406949
 30
0.0
 11
697.879027290692
 21
703.23061046881
 31
0.0
  0
LINE
  5
1B3B
330
A
100
AcDbEntity
  8
部材(ﾋﾞｽ類)
370
     5
100
AcDbLine
 10
698.945693957387
 20
698.827532406754
 30
0.0
 11
698.945693957387
 21
698.560865740077
 31
0.0
  0
LINE
  5
1B3C
330
A
100
AcDbEntity
  8
部材(ﾋﾞｽ類)
370
     5
100
AcDbLine
 10
698.945693957387
 20
698.560865740077
 30
0.0
 11
697.879027290692
 21
697.945025452904
 31
0.0
  0
LINE
  5
1B3D
330
A
100
AcDbEntity
  8
部材(ﾋﾞｽ類)
370
     5
100
AcDbLine
 10
698.945693957387
 20
698.827532406754
 30
0.0
 11
697.879027290692
 21
699.443372693924
 31
0.0
  0
LINE
  5
1B3E
330
A
100
AcDbEntity
  8
部材(ﾋﾞｽ類)
370
     5
100
AcDbLine
 10
697.23309618872
 20
701.298303155985
 30
0.0
 11
691.479027290348
 21
697.917787678216
 31
0.0
  0
LINE
  5
1B3F
330
A
100
AcDbEntity
  8
部材(ﾋﾞｽ類)
370
     5
100
AcDbLine
 10
697.879027290692
 20
703.23061046881
 30
0.0
 11
692.12495839232
 21
699.850094991023
 31
0.0
  0
LINE
  5
1B40
330
A
100
AcDbEntity
  8
部材(ﾋﾞｽ類)
370
     5
100
AcDbLine
 10
697.879027290692
 20
697.945025452904
 30
0.0
 11
691.479027290348
 21
694.185025452727
 31
0.0
  0
LINE
  5
1B41
330
A
100
AcDbEntity
  8
部材(ﾋﾞｽ類)
370
     5
100
AcDbLine
 10
691.479027290348
 20
695.683372693729
 30
0.0
 11
697.879027290692
 21
699.443372693924
 31
0.0
  0
LINE
  5
1B42
330
A
100
AcDbEntity
  8
部材(ﾋﾞｽ類)
370
     5
100
AcDbLine
 10
691.259632329078
 20
709.351693193425
 30
0.0
 11
691.39418664026
 21
707.427476895795
 31
0.0
  0
LINE
  5
1B43
330
A
100
AcDbEntity
  8
部材(ﾋﾞｽ類)
370
     5
100
AcDbLine
 10
691.412931157261
 20
709.974199073979
 30
0.0
 11
690.74140564409
 21
709.650891509518
 31
0.0
  0
LINE
  5
1B44
330
A
100
AcDbEntity
  8
部材(ﾋﾞｽ類)
370
     5
100
AcDbLine
 10
690.77236062364
 20
709.974199073979
 30
0.0
 11
690.74140564409
 21
709.650891509518
 31
0.0
  0
LINE
  5
1B45
330
A
100
AcDbEntity
  8
部材(ﾋﾞｽ類)
370
     5
100
AcDbLine
 10
690.74140564409
 20
709.650891509518
 30
0.0
 11
691.259632329078
 21
709.351693193425
 31
0.0
  0
LINE
  5
1B46
330
A
100
AcDbEntity
  8
部材(ﾋﾞｽ類)
370
     5
100
AcDbLine
 10
692.393746138157
 20
709.974199073979
 30
0.0
 11
691.259632329078
 21
709.351693193425
 31
0.0
  0
LINE
  5
1B47
330
A
100
AcDbEntity
  8
部材(ﾋﾞｽ類)
370
     5
100
AcDbLine
 10
691.479027290348
 20
694.185025452727
 30
0.0
 11
691.479027290348
 21
692.113246692137
 31
0.0
  0
LINE
  5
1B48
330
A
100
AcDbEntity
  8
部材(ﾋﾞｽ類)
370
     5
100
AcDbLine
 10
697.879027290692
 20
697.945025452904
 30
0.0
 11
697.879027290692
 21
695.710610468435
 31
0.0
  0
LINE
  5
1B49
330
A
100
AcDbEntity
  8
部材(ﾋﾞｽ類)
370
     5
100
AcDbLine
 10
697.929381692375
 20
693.966079326754
 30
0.0
 11
697.929381692375
 21
691.894300566168
 31
0.0
  0
LINE
  5
1B4A
330
A
100
AcDbEntity
  8
部材(ﾋﾞｽ類)
370
     5
100
AcDbLine
 10
700.279027290788
 20
694.800865739879
 30
0.0
 11
689.079027290238
 21
691.040865739702
 31
0.0
  0
LINE
  5
1B4B
330
A
100
AcDbEntity
  8
部材(ﾋﾞｽ類)
370
     5
100
AcDbLine
 10
700.279027290788
 20
695.067532406574
 30
0.0
 11
689.079027290238
 21
691.307532406379
 31
0.0
  0
LINE
  5
1B4C
330
A
100
AcDbEntity
  8
部材(ﾋﾞｽ類)
370
     5
100
AcDbLine
 10
689.079027290238
 20
691.307532406379
 30
0.0
 11
689.079027290238
 21
691.040865739702
 31
0.0
  0
LINE
  5
1B4D
330
A
100
AcDbEntity
  8
部材(ﾋﾞｽ類)
370
     5
100
AcDbLine
 10
689.079027290238
 20
691.040865739702
 30
0.0
 11
691.479027290348
 21
690.397787677841
 31
0.0
  0
LINE
  5
1B4E
330
A
100
AcDbEntity
  8
部材(ﾋﾞｽ類)
370
     5
100
AcDbLine
 10
700.279027290788
 20
695.067532406574
 30
0.0
 11
700.279027290788
 21
694.800865739879
 31
0.0
  0
LINE
  5
1B4F
330
A
100
AcDbEntity
  8
部材(ﾋﾞｽ類)
370
     5
100
AcDbLine
 10
700.279027290788
 20
695.067532406574
 30
0.0
 11
697.879027290692
 21
695.710610468435
 31
0.0
  0
LINE
  5
1B50
330
A
100
AcDbEntity
  8
部材(ﾋﾞｽ類)
370
     5
100
AcDbLine
 10
697.23309618872
 20
693.77830315561
 30
0.0
 11
691.479027290348
 21
690.397787677841
 31
0.0
  0
LINE
  5
1B51
330
A
100
AcDbEntity
  8
部材(ﾋﾞｽ類)
370
     5
100
AcDbLine
 10
697.879027290692
 20
695.710610468435
 30
0.0
 11
692.12495839232
 21
692.330094990648
 31
0.0
  0
LINE
  5
1B52
330
A
100
AcDbEntity
  8
IBリキッド
100
AcDbLine
 10
599.991758444492
 20
804.933333333207
 30
0.0
 11
599.991758444492
 21
818.266666667208
 31
0.0
  0
LINE
  5
1B53
330
A
100
AcDbEntity
  8
IBリキッド
100
AcDbLine
 10
599.991758444492
 20
804.933333333207
 30
0.0
 11
581.325091776889
 21
804.933333333207
 31
0.0
  0
LINE
  5
1B54
330
A
100
AcDbEntity
  8
IBｼｰﾄ
100
AcDbLine
 10
602.658425111294
 20
804.933333333207
 30
0.0
 11
602.658425111294
 21
818.266666667208
 31
0.0
  0
ARC
  5
1B55
330
A
100
AcDbEntity
  8
IBリキッド
100
AcDbCircle
 10
599.991758444492
 20
798.533333332885
 30
0.0
 40
19.73333333432125
100
AcDbArc
 50
90.0
 51
161.075355583947
  0
LINE
  5
1B56
330
A
100
AcDbEntity
  8
寸法線
100
AcDbLine
 10
668.005300946854
 20
786.888888888829
 30
0.0
 11
742.81892822354
 21
916.471377778966
 31
0.0
  0
LINE
  5
1B57
330
A
100
AcDbEntity
  8
寸法線
100
AcDbLine
 10
742.81892822354
 20
916.471377778966
 30
0.0
 11
754.81892822354
 21
916.471377778966
 31
0.0
  0
TEXT
  5
1B58
330
A
100
AcDbEntity
  8
文字
100
AcDbText
 10
759.359507039262
 20
912.632889372446
 30
0.0
 40
12.0
  1
特注鋼鈑(IB積層鋼板♯21型)
  7
基本スタイル
100
AcDbText
1001
AcadAnnotative
1000
AnnotativeData
1002
{
1070
     1
1070
     0
1002
}
  0
LWPOLYLINE
  5
1B59
330
A
100
AcDbEntity
  8
寸法線
100
AcDbPolyline
 90
        3
 70
     0
 43
0.0
 10
672.247920575755
 20
791.131550634051
 10
668.005300946854
 20
786.888888888843
 10
669.558186451468
 20
792.68445155432
  0
LINE
  5
1B5A
330
A
100
AcDbEntity
  8
寸法線
100
AcDbLine
 10
727.422015481003
 20
889.80283693918
 30
0.0
 11
739.422015481003
 21
889.80283693918
 31
0.0
  0
TEXT
  5
1B5B
330
A
100
AcDbEntity
  8
文字
100
AcDbText
 10
743.96259429674
 20
885.964348532663
 30
0.0
 40
12.0
  1
サンタックシーラーTM-104
  7
基本スタイル
100
AcDbText
1001
AcadAnnotative
1000
AnnotativeData
1002
{
1070
     1
1070
     0
1002
}
  0
LINE
  5
1B5C
330
A
100
AcDbEntity
  8
寸法線
100
AcDbLine
 10
592.200766300957
 20
816.663553570765
 30
0.0
 11
554.477824775327
 21
882.002353854714
 31
0.0
  0
LINE
  5
1B5D
330
A
100
AcDbEntity
  8
寸法線
100
AcDbLine
 10
554.477824775371
 20
882.002353854714
 30
0.0
 11
542.477824775371
 21
882.002353854714
 31
0.0
  0
TEXT
  5
1B5E
330
A
100
AcDbEntity
  8
文字
100
AcDbText
 10
459.90798498677
 20
878.163865448198
 30
0.0
 40
12.0
  1
IBリキッド
  7
基本スタイル
 72
     2
 11
537.937245959634
 21
878.163865448198
 31
0.0
100
AcDbText
1001
AcadAnnotative
1000
AnnotativeData
1002
{
1070
     1
1070
     0
1002
}
  0
LWPOLYLINE
  5
1B5F
330
A
100
AcDbEntity
  8
寸法線
100
AcDbPolyline
 90
        3
 70
     0
 43
0.0
 10
587.958146672056
 20
820.906215315972
 10
592.200766300957
 20
816.663553570765
 10
590.647880796343
 20
822.459116236241
  0
LINE
  5
1B60
330
A
100
AcDbEntity
  8
寸法線
100
AcDbLine
 10
988.908128305906
 20
690.000000004798
 30
0.0
 11
1121.970397109544
 21
920.473251958954
 31
0.0
  0
LINE
  5
1B61
330
A
100
AcDbEntity
  8
寸法線
100
AcDbLine
 10
1121.970397109544
 20
920.473251958954
 30
0.0
 11
1133.970397109544
 21
920.473251958954
 31
0.0
  0
TEXT
  5
1B62
330
A
100
AcDbEntity
  8
文字
100
AcDbText
 10
1138.510975925281
 20
916.634763552433
 30
0.0
 40
12.0
  1
サンタックIB-HWCシート
  7
基本スタイル
100
AcDbText
1001
AcadAnnotative
1000
AnnotativeData
1002
{
1070
     1
1070
     0
1002
}
  0
LWPOLYLINE
  5
1B63
330
A
100
AcDbEntity
  8
寸法線
100
AcDbPolyline
 90
        3
 70
     0
 43
0.0
 10
993.150747934807
 20
694.242661750006
 10
988.908128305906
 20
690.000000004798
 10
990.46101381052
 20
695.795562670279
  0
LINE
  5
1B64
330
A
100
AcDbEntity
  8
寸法線
100
AcDbLine
 10
1106.573484367022
 20
893.80471111917
 30
0.0
 11
1118.573484367022
 21
893.80471111917
 31
0.0
  0
TEXT
  5
1B65
330
A
100
AcDbEntity
  8
文字
100
AcDbText
 10
1123.114063182758
 20
889.96622271265
 30
0.0
 40
12.0
  1
GCシート
  7
基本スタイル
100
AcDbText
1001
AcadAnnotative
1000
AnnotativeData
1002
{
1070
     1
1070
     0
1002
}
  0
LINE
  5
1B66
330
A
100
AcDbEntity
  8
寸法線
100
AcDbLine
 10
1091.176571624484
 20
867.136170279384
 30
0.0
 11
1103.176571624484
 21
867.136170279384
 31
0.0
  0
TEXT
  5
1B67
330
A
100
AcDbEntity
  8
文字
100
AcDbText
 10
1107.717150440221
 20
863.297681872868
 30
0.0
 40
12.0
  1
断熱材(ｶﾈﾗｲﾄﾌｫｰﾑｽｰﾊﾟｰE.I)
  7
基本スタイル
100
AcDbText
1001
AcadAnnotative
1000
AnnotativeData
1002
{
1070
     1
1070
     0
1002
}
  0
LINE
  5
1B68
330
A
100
AcDbEntity
  8
寸法線
100
AcDbLine
 10
1075.779658881962
 20
840.467629439601
 30
0.0
 11
1087.779658881962
 21
840.467629439601
 31
0.0
  0
TEXT
  5
1B69
330
A
100
AcDbEntity
  8
文字
100
AcDbText
 10
1092.320237697699
 20
836.629141033081
 30
0.0
 40
12.0
  1
下地(CLT)
  7
基本スタイル
100
AcDbText
1001
AcadAnnotative
1000
AnnotativeData
1002
{
1070
     1
1070
     0
1002
}
  0
LWPOLYLINE
  5
1B6A
330
A
100
AcDbEntity
  8
0
  6
ByBlock
 62
     0
100
AcDbPolyline
 90
        2
 70
     1
 43
1.920000000096
 10
987.948128305899
 20
690.000000004798
 42
1.0
 10
989.868128305912
 20
690.000000004798
 42
1.0
  0
LWPOLYLINE
  5
1B6B
330
A
100
AcDbEntity
  8
0
  6
ByBlock
 62
     0
100
AcDbPolyline
 90
        2
 70
     1
 43
1.920000000096
 10
1035.675203479594
 20
772.666666674802
 42
1.0
 10
1037.595203479621
 20
772.666666674802
 42
1.0
  0
LWPOLYLINE
  5
1B6C
330
A
100
AcDbEntity
  8
0
  6
ByBlock
 62
     0
100
AcDbPolyline
 90
        2
 70
     1
 43
1.920000000096
 10
1038.138536392202
 20
776.933333342484
 42
1.0
 10
1040.058536392229
 20
776.933333342484
 42
1.0
  0
LWPOLYLINE
  5
1B6D
330
A
100
AcDbEntity
  8
0
  6
ByBlock
 62
     0
100
AcDbPolyline
 90
        2
 70
     1
 43
1.920000000096
 10
1047.376034812987
 20
792.933333343284
 42
1.0
 10
1049.296034813015
 20
792.933333343284
 42
1.0
  0
VIEWPORT
  5
1D
330
B
100
AcDbEntity
 67
     1
  8
0
100
AcDbViewport
 10
210.0
 20
148.5
 30
0.0
 40
420.0
 41
297.0
 68
     1
 69
     1
 12
4.5
 22
3.259162
 13
0.0
 23
0.0
 14
1.0
 24
1.0
 15
0.0
 25
0.0
 16
0.0
 26
0.0
 36
1.0
 17
0.0
 27
0.0
 37
0.0
 42
50.0
 43
0.0
 44
0.0
 45
9.311892
 50
0.0
 51
0.0
 72
   100
 90
   557216
  1

281
     0
 71
     1
 74
     0
110
0.0
120
0.0
130
0.0
111
1.0
121
0.0
131
0.0
112
0.0
122
1.0
132
0.0
 79
     0
146
0.0
170
     0
 61
     5
348
15D0
292
     0
282
     1
141
0.0
142
0.0
 63
   250
421
  3355443
  0
ENDSEC
  0
SECTION
  2
OBJECTS
  0
DICTIONARY
  5
19
330
0
100
AcDbDictionary
281
     1
  3
ACAD_COLOR
350
165D
  3
ACAD_DETAILVIEWSTYLE
350
1639
  3
ACAD_FIELDLIST
350
1BD6
  3
ACAD_GROUP
350
1A
  3
ACAD_IMAGE_VARS
350
163B
  3
ACAD_LAYOUT
350
15C8
  3
ACAD_MATERIAL
350
15E4
  3
ACAD_MLEADERSTYLE
350
15EA
  3
ACAD_MLINESTYLE
350
1B
  3
ACAD_PLOTSETTINGS
350
15A3
  3
ACAD_PLOTSTYLENAME
350
15A4
  3
ACAD_SCALELIST
350
15A6
  3
ACAD_SECTIONVIEWSTYLE
350
163A
  3
ACAD_TABLESTYLE
350
15E8
  3
ACAD_VISUALSTYLE
350
15CB
  3
ACDB_RECOMPOSE_DATA
350
1C8D
  3
AcDbVariableDictionary
350
15F4
  0
SUN
  5
15ED
330
15
100
AcDbSun
 90
        1
290
     0
 63
     7
421
 16777215
 40
1.0
291
     1
 91
  2455826
 92
 54000000
292
     0
 70
     2
 71
   256
280
     1
  0
DICTIONARY
  5
1920
330
2
100
AcDbDictionary
280
     1
281
     1
  3
ACAD_LAYERSTATES
360
1921
  0
DICTIONARY
  5
163E
330
163D
100
AcDbDictionary
280
     1
281
     1
  3
ADSK_XREC_LAYER_RECONCILED
360
163F
  0
DICTIONARY
  5
164B
330
164A
100
AcDbDictionary
280
     1
281
     1
  3
ADSK_XREC_LAYER_RECONCILED
360
164C
  0
DICTIONARY
  5
16AC
330
16AB
100
AcDbDictionary
280
     1
281
     1
  3
ACAD_SORTENTS
360
16AD
  0
DICTIONARY
  5
16B8
330
16B7
100
AcDbDictionary
280
     1
281
     1
  3
ACAD_SORTENTS
360
16B9
  0
DICTIONARY
  5
16C4
330
16C3
100
AcDbDictionary
280
     1
281
     1
  3
ACAD_SORTENTS
360
16C5
  0
DICTIONARY
  5
16D0
330
16CF
100
AcDbDictionary
280
     1
281
     1
  3
ACAD_SORTENTS
360
16D1
  0
DICTIONARY
  5
16E5
330
16E4
100
AcDbDictionary
280
     1
281
     1
  3
ACAD_SORTENTS
360
16E6
  0
DICTIONARY
  5
1C55
330
1962
100
AcDbDictionary
280
     1
281
     1
  3
ACAD_XREC_ROUNDTRIP
360
1C56
  0
DICTIONARY
  5
1965
330
1964
100
AcDbDictionary
280
     1
281
     1
  3
AcDbContextDataManager
360
1966
  0
DICTIONARY
  5
1969
330
1968
100
AcDbDictionary
280
     1
281
     1
  3
AcDbContextDataManager
360
196A
  0
DICTIONARY
  5
196D
330
196C
100
AcDbDictionary
280
     1
281
     1
  3
AcDbContextDataManager
360
196E
  0
DICTIONARY
  5
1971
330
1970
100
AcDbDictionary
280
     1
281
     1
  3
AcDbContextDataManager
360
1972
  0
DICTIONARY
  5
1975
330
1974
100
AcDbDictionary
280
     1
281
     1
  3
AcDbContextDataManager
360
1976
  0
DICTIONARY
  5
1979
330
1978
100
AcDbDictionary
280
     1
281
     1
  3
AcDbContextDataManager
360
197A
  0
DICTIONARY
  5
197E
330
197D
100
AcDbDictionary
280
     1
281
     1
  3
AcDbContextDataManager
360
197F
  0
DICTIONARY
  5
1982
330
1981
100
AcDbDictionary
280
     1
281
     1
  3
AcDbContextDataManager
360
1983
  0
DICTIONARY
  5
1986
330
1985
100
AcDbDictionary
280
     1
281
     1
  3
AcDbContextDataManager
360
1987
  0
DICTIONARY
  5
199D
330
199C
100
AcDbDictionary
280
     1
281
     1
  3
AcDbContextDataManager
360
199E
  0
DICTIONARY
  5
165D
102
{ACAD_REACTORS
330
19
102
}
330
19
100
AcDbDictionary
281
     1
  0
DICTIONARY
  5
1639
102
{ACAD_REACTORS
330
19
102
}
330
19
100
AcDbDictionary
281
     1
  0
FIELDLIST
  5
1BD6
102
{ACAD_REACTORS
330
19
102
}
330
19
100
AcDbIdSet
 90
        0
100
AcDbFieldList
  0
DICTIONARY
  5
1A
102
{ACAD_REACTORS
330
19
102
}
330
19
100
AcDbDictionary
281
     1
  0
RASTERVARIABLES
  5
163B
102
{ACAD_REACTORS
330
19
102
}
330
19
100
AcDbRasterVariables
 90
        0
 70
     1
 71
     1
 72
     0
  0
DICTIONARY
  5
15C8
102
{ACAD_REACTORS
330
19
102
}
330
19
100
AcDbDictionary
281
     1
  3
Model
350
15C9
  3
レイアウト1
350
15CA
  0
DICTIONARY
  5
15E4
102
{ACAD_REACTORS
330
19
102
}
330
19
100
AcDbDictionary
281
     1
  3
ByBlock
350
15E6
  3
ByLayer
350
15E5
  3
Global
350
15E7
  0
DICTIONARY
  5
15EA
102
{ACAD_REACTORS
330
19
102
}
330
19
100
AcDbDictionary
281
     1
  3
Standard
350
15EB
  0
DICTIONARY
  5
1B
102
{ACAD_REACTORS
330
19
102
}
330
19
100
AcDbDictionary
281
     1
  3
STANDARD
350
1C
  0
DICTIONARY
  5
15A3
102
{ACAD_REACTORS
330
19
102
}
330
19
100
AcDbDictionary
281
     1
  0
ACDBDICTIONARYWDFLT
  5
15A4
102
{ACAD_REACTORS
330
19
102
}
330
19
100
AcDbDictionary
281
     1
  3
Normal
350
15A5
100
AcDbDictionaryWithDefault
340
15A5
  0
DICTIONARY
  5
15A6
102
{ACAD_REACTORS
330
19
102
}
330
19
100
AcDbDictionary
281
     1
  3
A0
350
15A7
  3
A1
350
15A8
  3
A2
350
15A9
  3
A3
350
15AA
  3
A4
350
15AB
  3
A5
350
15AC
  3
A6
350
15AD
  3
A7
350
15AE
  3
A8
350
15AF
  3
A9
350
15B0
  3
B0
350
15B1
  3
B1
350
15B2
  3
B2
350
15B3
  3
B3
350
15B4
  3
B4
350
15B5
  3
B5
350
15B6
  3
B6
350
15B7
  3
B7
350
15B8
  3
B8
350
15B9
  3
B9
350
15BA
  3
C0
350
15BB
  3
C1
350
15BC
  3
C2
350
15BD
  3
C3
350
15BE
  3
C4
350
15BF
  3
C5
350
15C0
  3
C6
350
15C1
  3
C7
350
15C2
  3
C8
350
15C3
  3
C9
350
15C4
  3
D0
350
15C5
  3
D1
350
15C6
  3
D2
350
15C7
  0
DICTIONARY
  5
163A
102
{ACAD_REACTORS
330
19
102
}
330
19
100
AcDbDictionary
281
     1
  0
DICTIONARY
  5
15E8
102
{ACAD_REACTORS
330
19
102
}
330
19
100
AcDbDictionary
281
     1
  3
HISTORY_TABLE
350
1660
  3
Standard
350
15E9
  0
DICTIONARY
  5
15CB
102
{ACAD_REACTORS
330
19
102
}
330
19
100
AcDbDictionary
281
     1
  3
2dWireframe
350
15D0
  3
Basic
350
15D3
  3
Brighten
350
15D7
  3
ColorChange
350
15DB
  3
Conceptual
350
15D5
  3
Dim
350
15D6
  3
EdgeColorOff
350
15DE
  3
Facepattern
350
15DA
  3
Flat
350
15CC
  3
FlatWithEdges
350
15CD
  3
Gouraud
350
15CE
  3
GouraudWithEdges
350
15CF
  3
Hidden
350
15D2
  3
JitterOff
350
15DC
  3
Linepattern
350
15D9
  3
Modeling
350
15EC
  3
OverhangOff
350
15DD
  3
Realistic
350
15D4
  3
Shaded
350
15E3
  3
Shaded with edges
350
15E2
  3
Shades of Gray
350
15DF
  3
Sketchy
350
15E0
  3
Thicken
350
15D8
  3
Wireframe
350
15D1
  3
X-Ray
350
15E1
  0
XRECORD
  5
1C8D
102
{ACAD_REACTORS
330
19
102
}
330
19
100
AcDbXrecord
280
     1
 90
        1
330
15E9
330
1660
330
1962
  0
DICTIONARY
  5
15F4
102
{ACAD_REACTORS
330
19
102
}
330
19
100
AcDbDictionary
281
     1
  3
CANNOSCALE
350
15F5
  3
CMLEADERSTYLE
350
1637
  3
CTABLESTYLE
350
1636
  3
MSLTSCALE
350
1638
  3
XCLIPFRAME
350
15F6
  0
DICTIONARY
  5
1921
102
{ACAD_REACTORS
330
1920
102
}
330
1920
100
AcDbDictionary
281
     1
  0
XRECORD
  5
163F
102
{ACAD_REACTORS
330
163E
102
}
330
163E
100
AcDbXrecord
280
     1
290
     1
  0
XRECORD
  5
164C
102
{ACAD_REACTORS
330
164B
102
}
330
164B
100
AcDbXrecord
280
     1
290
     1
  0
SORTENTSTABLE
  5
16AD
102
{ACAD_REACTORS
330
16AC
102
}
330
16AC
100
AcDbSortentsTable
330
16AB
331
16AF
  5
16B0
331
16B0
  5
16AF
  0
SORTENTSTABLE
  5
16B9
102
{ACAD_REACTORS
330
16B8
102
}
330
16B8
100
AcDbSortentsTable
330
16B7
331
16BB
  5
16BC
331
16BC
  5
16BB
  0
SORTENTSTABLE
  5
16C5
102
{ACAD_REACTORS
330
16C4
102
}
330
16C4
100
AcDbSortentsTable
330
16C3
331
16C7
  5
16C8
331
16C8
  5
16C7
  0
SORTENTSTABLE
  5
16D1
102
{ACAD_REACTORS
330
16D0
102
}
330
16D0
100
AcDbSortentsTable
330
16CF
331
16D3
  5
16D4
331
16D4
  5
16D3
  0
SORTENTSTABLE
  5
16E6
102
{ACAD_REACTORS
330
16E5
102
}
330
16E5
100
AcDbSortentsTable
330
16E4
331
16E8
  5
1714
331
16E9
  5
1713
331
16EA
  5
1712
331
16EB
  5
1711
331
16EC
  5
1710
331
16ED
  5
170F
331
16EE
  5
170E
331
16EF
  5
170D
331
16F0
  5
170C
331
16F1
  5
170B
331
16F2
  5
170A
331
16F3
  5
1709
331
16F4
  5
1708
331
16F5
  5
1707
331
16F6
  5
1706
331
16F7
  5
1705
331
16F8
  5
1704
331
16F9
  5
1703
331
16FA
  5
1702
331
16FB
  5
1701
331
16FC
  5
1700
331
16FD
  5
16FF
331
16FF
  5
16FD
331
1700
  5
16FC
331
1701
  5
16FB
331
1702
  5
16FA
331
1703
  5
16F9
331
1704
  5
16F8
331
1705
  5
16F7
331
1706
  5
16F6
331
1707
  5
16F5
331
1708
  5
16F4
331
1709
  5
16F3
331
170A
  5
16F2
331
170B
  5
16F1
331
170C
  5
16F0
331
170D
  5
16EF
331
170E
  5
16EE
331
170F
  5
16ED
331
1710
  5
16EC
331
1711
  5
16EB
331
1712
  5
16EA
331
1713
  5
16E9
331
1714
  5
16E8
  0
XRECORD
  5
1C56
102
{ACAD_REACTORS
330
1C55
102
}
330
1C55
100
AcDbXrecord
280
     1
102
ACAD_ROUNDTRIP_2008_TABLE_ENTITY
360
1C53
 70
     2
 90
        1
 10
0.0
 20
0.0
 30
0.0
 90
        0
 90
        4
361
1C54
  0
DICTIONARY
  5
1966
102
{ACAD_REACTORS
330
1965
102
}
330
1965
100
AcDbDictionary
281
     1
  3
ACDB_ANNOTATIONSCALES
350
1967
  0
DICTIONARY
  5
196A
102
{ACAD_REACTORS
330
1969
102
}
330
1969
100
AcDbDictionary
281
     1
  3
ACDB_ANNOTATIONSCALES
350
196B
  0
DICTIONARY
  5
196E
102
{ACAD_REACTORS
330
196D
102
}
330
196D
100
AcDbDictionary
281
     1
  3
ACDB_ANNOTATIONSCALES
350
196F
  0
DICTIONARY
  5
1972
102
{ACAD_REACTORS
330
1971
102
}
330
1971
100
AcDbDictionary
281
     1
  3
ACDB_ANNOTATIONSCALES
350
1973
  0
DICTIONARY
  5
1976
102
{ACAD_REACTORS
330
1975
102
}
330
1975
100
AcDbDictionary
281
     1
  3
ACDB_ANNOTATIONSCALES
350
1977
  0
DICTIONARY
  5
197A
102
{ACAD_REACTORS
330
1979
102
}
330
1979
100
AcDbDictionary
281
     1
  3
ACDB_ANNOTATIONSCALES
350
197B
  0
DICTIONARY
  5
197F
102
{ACAD_REACTORS
330
197E
102
}
330
197E
100
AcDbDictionary
281
     1
  3
ACDB_ANNOTATIONSCALES
350
1980
  0
DICTIONARY
  5
1983
102
{ACAD_REACTORS
330
1982
102
}
330
1982
100
AcDbDictionary
281
     1
  3
ACDB_ANNOTATIONSCALES
350
1984
  0
DICTIONARY
  5
1987
102
{ACAD_REACTORS
330
1986
102
}
330
1986
100
AcDbDictionary
281
     1
  3
ACDB_ANNOTATIONSCALES
350
1988
  0
DICTIONARY
  5
199E
102
{ACAD_REACTORS
330
199D
102
}
330
199D
100
AcDbDictionary
281
     1
  3
ACDB_ANNOTATIONSCALES
350
199F
  0
LAYOUT
  5
15C9
102
{ACAD_REACTORS
330
15C8
102
}
330
15C8
100
AcDbPlotSettings
  1

  2
none_device
  4
Letter_(8.50_x_11.00_Inches)
  6

 40
6.35
 41
6.35
 42
6.35000508
 43
6.35000508
 44
215.9
 45
279.4
 46
0.0
 47
0.0
 48
0.0
 49
0.0
140
0.0
141
0.0
142
1.0
143
28.28571482449
 70
  1712
 72
     0
 73
     0
 74
     0
  7

 75
     0
 76
     0
 77
     2
 78
   300
147
0.03535353468
148
-958.8054484
149
0.0
100
AcDbLayout
  1
Model
 70
     1
 71
     0
 10
0.0
 20
0.0
 11
420.0
 21
297.0
 12
0.0
 22
0.0
 32
0.0
 14
0.0
 24
0.0
 34
0.0
 15
1680.0
 25
1188.0
 35
0.0
146
0.0
 13
0.0
 23
0.0
 33
0.0
 16
1.0
 26
0.0
 36
0.0
 17
0.0
 27
1.0
 37
0.0
 76
     0
330
A
331
15
  0
LAYOUT
  5
15CA
102
{ACAD_REACTORS
330
15C8
102
}
330
15C8
100
AcDbPlotSettings
  1

  2
none_device
  4

  6

 40
0.0
 41
0.0
 42
0.0
 43
0.0
 44
0.0
 45
0.0
 46
0.0
 47
0.0
 48
0.0
 49
0.0
140
0.0
141
0.0
142
1.0
143
1.0
 70
   688
 72
     0
 73
     0
 74
     5
  7

 75
    16
 76
     0
 77
     2
 78
   300
147
1.0
148
0.0
149
0.0
100
AcDbLayout
  1
レイアウト1
 70
     0
 71
     1
 10
0.0
 20
0.0
 11
12.0
 21
9.0
 12
0.0
 22
0.0
 32
0.0
 14
1.000000000000E+20
 24
1.000000000000E+20
 34
1.000000000000E+20
 15
-1.000000000000E+20
 25
-1.000000000000E+20
 35
-1.000000000000E+20
146
0.0
 13
0.0
 23
0.0
 33
0.0
 16
1.0
 26
0.0
 36
0.0
 17
0.0
 27
1.0
 37
0.0
 76
     0
330
B
331
1D
  0
MATERIAL
  5
15E6
102
{ACAD_REACTORS
330
15E4
102
}
330
15E4
100
AcDbMaterial
  1
ByBlock
 72
     1
 94
      127
  0
MATERIAL
  5
15E5
102
{ACAD_REACTORS
330
15E4
102
}
330
15E4
100
AcDbMaterial
  1
ByLayer
 72
     1
 94
      127
  0
MATERIAL
  5
15E7
102
{ACAD_REACTORS
330
15E4
102
}
330
15E4
100
AcDbMaterial
  1
Global
 72
     1
 94
      127
  0
MLEADERSTYLE
  5
15EB
102
{ACAD_REACTORS
330
15EA
102
}
330
15EA
100
AcDbMLeaderStyle
179
     2
170
     2
171
     1
172
     0
 90
        2
 40
0.0
 41
0.0
173
     1
 91
-1056964608
340
11
 92
       -2
290
     1
 42
0.09
291
     1
 43
0.36
  3
Standard
341
0
 44
0.18
300

342
17
174
     1
178
     6
175
     1
176
     0
 93
-1056964608
 45
0.18
292
     0
297
     0
 46
0.18
343
0
 94
-1056964608
 47
1.0
 49
1.0
140
1.0
293
     1
141
0.0
294
     1
177
     0
142
1.0
295
     0
296
     0
143
0.125
271
     0
272
     9
273
     9
  0
MLINESTYLE
  5
1C
102
{ACAD_REACTORS
330
1B
102
}
330
1B
100
AcDbMlineStyle
  2
STANDARD
 70
     0
  3

 62
     0
 51
90.0
 52
90.0
 71
     2
 49
0.5
 62
   256
  6
BYLAYER
 49
-0.5
 62
   256
  6
BYLAYER
  0
ACDBPLACEHOLDER
  5
15A5
102
{ACAD_REACTORS
330
15A4
102
}
330
15A4
  0
SCALE
  5
15A7
102
{ACAD_REACTORS
330
15A6
102
}
330
15A6
100
AcDbScale
 70
     0
300
1:1
140
1.0
141
1.0
290
     1
  0
SCALE
  5
15A8
102
{ACAD_REACTORS
330
15A6
102
}
330
15A6
100
AcDbScale
 70
     0
300
1:2
140
1.0
141
2.0
290
     0
  0
SCALE
  5
15A9
102
{ACAD_REACTORS
330
15A6
102
}
330
15A6
100
AcDbScale
 70
     0
300
1:4
140
1.0
141
4.0
290
     0
  0
SCALE
  5
15AA
102
{ACAD_REACTORS
330
15A6
102
}
330
15A6
100
AcDbScale
 70
     0
300
1:5
140
1.0
141
5.0
290
     0
  0
SCALE
  5
15AB
102
{ACAD_REACTORS
330
15A6
102
}
330
15A6
100
AcDbScale
 70
     0
300
1:8
140
1.0
141
8.0
290
     0
  0
SCALE
  5
15AC
102
{ACAD_REACTORS
330
15A6
102
}
330
15A6
100
AcDbScale
 70
     0
300
1:10
140
1.0
141
10.0
290
     0
  0
SCALE
  5
15AD
102
{ACAD_REACTORS
330
15A6
102
}
330
15A6
100
AcDbScale
 70
     0
300
1:16
140
1.0
141
16.0
290
     0
  0
SCALE
  5
15AE
102
{ACAD_REACTORS
330
15A6
102
}
330
15A6
100
AcDbScale
 70
     0
300
1:20
140
1.0
141
20.0
290
     0
  0
SCALE
  5
15AF
102
{ACAD_REACTORS
330
15A6
102
}
330
15A6
100
AcDbScale
 70
     0
300
1:30
140
1.0
141
30.0
290
     0
  0
SCALE
  5
15B0
102
{ACAD_REACTORS
330
15A6
102
}
330
15A6
100
AcDbScale
 70
     0
300
1:40
140
1.0
141
40.0
290
     0
  0
SCALE
  5
15B1
102
{ACAD_REACTORS
330
15A6
102
}
330
15A6
100
AcDbScale
 70
     0
300
1:50
140
1.0
141
50.0
290
     0
  0
SCALE
  5
15B2
102
{ACAD_REACTORS
330
15A6
102
}
330
15A6
100
AcDbScale
 70
     0
300
1:100
140
1.0
141
100.0
290
     0
  0
SCALE
  5
15B3
102
{ACAD_REACTORS
330
15A6
102
}
330
15A6
100
AcDbScale
 70
     0
300
2:1
140
2.0
141
1.0
290
     0
  0
SCALE
  5
15B4
102
{ACAD_REACTORS
330
15A6
102
}
330
15A6
100
AcDbScale
 70
     0
300
4:1
140
4.0
141
1.0
290
     0
  0
SCALE
  5
15B5
102
{ACAD_REACTORS
330
15A6
102
}
330
15A6
100
AcDbScale
 70
     0
300
8:1
140
8.0
141
1.0
290
     0
  0
SCALE
  5
15B6
102
{ACAD_REACTORS
330
15A6
102
}
330
15A6
100
AcDbScale
 70
     0
300
10:1
140
10.0
141
1.0
290
     0
  0
SCALE
  5
15B7
102
{ACAD_REACTORS
330
15A6
102
}
330
15A6
100
AcDbScale
 70
     0
300
100:1
140
100.0
141
1.0
290
     0
  0
SCALE
  5
15B8
102
{ACAD_REACTORS
330
15A6
102
}
330
15A6
100
AcDbScale
 70
     0
300
1/128" = 1'-0"
140
0.0078125
141
12.0
290
     0
  0
SCALE
  5
15B9
102
{ACAD_REACTORS
330
15A6
102
}
330
15A6
100
AcDbScale
 70
     0
300
1/64" = 1'-0"
140
0.015625
141
12.0
290
     0
  0
SCALE
  5
15BA
102
{ACAD_REACTORS
330
15A6
102
}
330
15A6
100
AcDbScale
 70
     0
300
1/32" = 1'-0"
140
0.03125
141
12.0
290
     0
  0
SCALE
  5
15BB
102
{ACAD_REACTORS
330
15A6
102
}
330
15A6
100
AcDbScale
 70
     0
300
1/16" = 1'-0"
140
0.0625
141
12.0
290
     0
  0
SCALE
  5
15BC
102
{ACAD_REACTORS
330
15A6
102
}
330
15A6
100
AcDbScale
 70
     0
300
3/32" = 1'-0"
140
0.09375
141
12.0
290
     0
  0
SCALE
  5
15BD
102
{ACAD_REACTORS
330
15A6
102
}
330
15A6
100
AcDbScale
 70
     0
300
1/8" = 1'-0"
140
0.125
141
12.0
290
     0
  0
SCALE
  5
15BE
102
{ACAD_REACTORS
330
15A6
102
}
330
15A6
100
AcDbScale
 70
     0
300
3/16" = 1'-0"
140
0.1875
141
12.0
290
     0
  0
SCALE
  5
15BF
102
{ACAD_REACTORS
330
15A6
102
}
330
15A6
100
AcDbScale
 70
     0
300
1/4" = 1'-0"
140
0.25
141
12.0
290
     0
  0
SCALE
  5
15C0
102
{ACAD_REACTORS
330
15A6
102
}
330
15A6
100
AcDbScale
 70
     0
300
3/8" = 1'-0"
140
0.375
141
12.0
290
     0
  0
SCALE
  5
15C1
102
{ACAD_REACTORS
330
15A6
102
}
330
15A6
100
AcDbScale
 70
     0
300
1/2" = 1'-0"
140
0.5
141
12.0
290
     0
  0
SCALE
  5
15C2
102
{ACAD_REACTORS
330
15A6
102
}
330
15A6
100
AcDbScale
 70
     0
300
3/4" = 1'-0"
140
0.75
141
12.0
290
     0
  0
SCALE
  5
15C3
102
{ACAD_REACTORS
330
15A6
102
}
330
15A6
100
AcDbScale
 70
     0
300
1" = 1'-0"
140
1.0
141
12.0
290
     0
  0
SCALE
  5
15C4
102
{ACAD_REACTORS
330
15A6
102
}
330
15A6
100
AcDbScale
 70
     0
300
1-1/2" = 1'-0"
140
1.5
141
12.0
290
     0
  0
SCALE
  5
15C5
102
{ACAD_REACTORS
330
15A6
102
}
330
15A6
100
AcDbScale
 70
     0
300
3" = 1'-0"
140
3.0
141
12.0
290
     0
  0
SCALE
  5
15C6
102
{ACAD_REACTORS
330
15A6
102
}
330
15A6
100
AcDbScale
 70
     0
300
6" = 1'-0"
140
6.0
141
12.0
290
     0
  0
SCALE
  5
15C7
102
{ACAD_REACTORS
330
15A6
102
}
330
15A6
100
AcDbScale
 70
     0
300
1'-0" = 1'-0"
140
12.0
141
12.0
290
     0
  0
TABLESTYLE
  5
1660
102
{ACAD_REACTORS
330
15E8
330
1962
102
}
102
{ACAD_XDICTIONARY
360
1C8B
102
}
330
15E8
100
AcDbTableStyle
  3

 70
     1
 71
     0
 40
0.06
 41
0.06
280
     0
281
     0
  7
ＭＳ ゴシック
140
6.0
170
     2
 62
     0
 63
   257
283
     0
 90
        4
 91
        0
  1

274
    -2
284
     1
 64
     0
275
    -2
285
     1
 65
     0
276
    -2
286
     1
 66
     0
277
    -2
287
     1
 67
     0
278
    -2
288
     1
 68
     0
279
    -2
289
     1
 69
     0
  7
ＭＳ ゴシック
140
1.0
170
     5
 62
     0
 63
   257
283
     0
 90
        4
 91
        0
  1

274
    -2
284
     1
 64
     0
275
    -2
285
     1
 65
     0
276
    -2
286
     1
 66
     0
277
    -2
287
     1
 67
     0
278
    -2
288
     1
 68
     0
279
    -2
289
     1
 69
     0
  7
ＭＳ ゴシック
140
6.0
170
     5
 62
     0
 63
   257
283
     0
 90
        4
 91
        0
  1

274
    -2
284
     1
 64
     0
275
    -2
285
     1
 65
     0
276
    -2
286
     1
 66
     0
277
    -2
287
     1
 67
     0
278
    -2
288
     1
 68
     0
279
    -2
289
     1
 69
     0
  0
TABLESTYLE
  5
15E9
102
{ACAD_REACTORS
330
15E8
102
}
102
{ACAD_XDICTIONARY
360
1C89
102
}
330
15E8
100
AcDbTableStyle
  3
Standard
 70
     0
 71
     0
 40
0.06
 41
0.06
280
     0
281
     0
  7
STANDARD
140
0.18
170
     2
 62
     0
 63
   257
283
     0
 90
        4
 91
        0
  1

274
    -2
284
     1
 64
     0
275
    -2
285
     1
 65
     0
276
    -2
286
     1
 66
     0
277
    -2
287
     1
 67
     0
278
    -2
288
     1
 68
     0
279
    -2
289
     1
 69
     0
  7
STANDARD
140
0.25
170
     5
 62
     0
 63
   257
283
     0
 90
        4
 91
        0
  1

274
    -2
284
     1
 64
     0
275
    -2
285
     1
 65
     0
276
    -2
286
     1
 66
     0
277
    -2
287
     1
 67
     0
278
    -2
288
     1
 68
     0
279
    -2
289
     1
 69
     0
  7
STANDARD
140
0.18
170
     5
 62
     0
 63
   257
283
     0
 90
        4
 91
        0
  1

274
    -2
284
     1
 64
     0
275
    -2
285
     1
 65
     0
276
    -2
286
     1
 66
     0
277
    -2
287
     1
 67
     0
278
    -2
288
     1
 68
     0
279
    -2
289
     1
 69
     0
  0
VISUALSTYLE
  5
15D0
102
{ACAD_REACTORS
330
15CB
102
}
102
{ACAD_XDICTIONARY
360
1C5F
102
}
330
15CB
100
AcDbVisualStyle
  2
2dWireframe
 70
     4
177
     2
291
     0
 71
     0
176
     1
 72
     2
176
     1
 73
     0
176
     1
 90
        0
176
     1
 40
0.6
176
     1
 41
30.0
176
     1
 62
     5
 63
     7
421
 16777215
176
     1
 74
     1
176
     1
 91
        4
176
     1
 64
     7
176
     1
 65
   257
176
     1
 75
     1
176
     1
175
     1
176
     1
 42
1.0
176
     1
 92
        0
176
     1
 66
   257
176
     1
 43
1.0
176
     1
 76
     1
176
     1
 77
     6
176
     1
 78
     2
176
     1
 67
     7
176
     1
 79
     5
176
     1
170
     0
176
     1
171
     0
176
     1
290
     0
176
     1
 93
        1
176
     1
 44
0.0
176
     1
173
     0
176
     1
  0
VISUALSTYLE
  5
15D3
102
{ACAD_REACTORS
330
15CB
102
}
102
{ACAD_XDICTIONARY
360
1C65
102
}
330
15CB
100
AcDbVisualStyle
  2
Basic
 70
     7
177
     2
291
     1
 71
     1
176
     1
 72
     0
176
     1
 73
     1
176
     1
 90
        0
176
     1
 40
0.6
176
     1
 41
30.0
176
     1
 62
     5
 63
     7
421
 16777215
176
     1
 74
     0
176
     1
 91
        4
176
     1
 64
     7
176
     1
 65
   257
176
     1
 75
     1
176
     1
175
     1
176
     1
 42
1.0
176
     1
 92
        8
176
     1
 66
     7
176
     1
 43
1.0
176
     1
 76
     1
176
     1
 77
     6
176
     1
 78
     2
176
     1
 67
     7
176
     1
 79
     5
176
     1
170
     0
176
     1
171
     0
176
     1
290
     0
176
     1
 93
        1
176
     1
 44
0.0
176
     1
173
     0
176
     1
  0
VISUALSTYLE
  5
15D7
102
{ACAD_REACTORS
330
15CB
102
}
102
{ACAD_XDICTIONARY
360
1C6D
102
}
330
15CB
100
AcDbVisualStyle
  2
Brighten
 70
    12
177
     2
291
     1
 71
     2
176
     1
 72
     2
176
     1
 73
     0
176
     1
 90
        0
176
     1
 40
0.6
176
     1
 41
30.0
176
     1
 62
     5
 63
     7
421
 16777215
176
     1
 74
     1
176
     1
 91
        4
176
     1
 64
     7
176
     1
 65
   257
176
     1
 75
     1
176
     1
175
     1
176
     1
 42
1.0
176
     1
 92
        8
176
     1
 66
     7
176
     1
 43
1.0
176
     1
 76
     1
176
     1
 77
     6
176
     1
 78
     2
176
     1
 67
     7
176
     1
 79
     5
176
     1
170
     0
176
     1
171
     0
176
     1
290
     0
176
     1
 93
        1
176
     1
 44
50.0
176
     1
173
     0
176
     1
  0
VISUALSTYLE
  5
15DB
102
{ACAD_REACTORS
330
15CB
102
}
102
{ACAD_XDICTIONARY
360
1C75
102
}
330
15CB
100
AcDbVisualStyle
  2
ColorChange
 70
    16
177
     2
291
     1
 71
     2
176
     1
 72
     2
176
     1
 73
     3
176
     1
 90
        0
176
     1
 40
0.6
176
     1
 41
30.0
176
     1
 62
     5
 63
     8
421
  8421504
176
     1
 74
     1
176
     1
 91
        4
176
     1
 64
     7
176
     1
 65
   257
176
     1
 75
     1
176
     1
175
     1
176
     1
 42
1.0
176
     1
 92
        8
176
     1
 66
     8
424
  8421504
176
     1
 43
1.0
176
     1
 76
     1
176
     1
 77
     6
176
     1
 78
     2
176
     1
 67
     7
176
     1
 79
     5
176
     1
170
     0
176
     1
171
     0
176
     1
290
     0
176
     1
 93
        1
176
     1
 44
0.0
176
     1
173
     0
176
     1
  0
VISUALSTYLE
  5
15D5
102
{ACAD_REACTORS
330
15CB
102
}
102
{ACAD_XDICTIONARY
360
1C69
102
}
330
15CB
100
AcDbVisualStyle
  2
Conceptual
 70
     9
177
     2
291
     0
 71
     3
176
     1
 72
     2
176
     1
 73
     0
176
     1
 90
        0
176
     1
 40
0.6
176
     1
 41
30.0
176
     1
 62
     5
 63
     7
421
 16777215
176
     1
 74
     2
176
     1
 91
        2
176
     1
 64
     7
176
     1
 65
   257
176
     1
 75
     1
176
     1
175
     1
176
     1
 42
179.0
176
     1
 92
        8
176
     1
 66
     7
176
     1
 43
1.0
176
     1
 76
     1
176
     1
 77
     6
176
     1
 78
     2
176
     1
 67
     7
176
     1
 79
     3
176
     1
170
     0
176
     1
171
     0
176
     1
290
     0
176
     1
 93
        1
176
     1
 44
0.0
176
     1
173
     0
176
     1
  0
VISUALSTYLE
  5
15D6
102
{ACAD_REACTORS
330
15CB
102
}
102
{ACAD_XDICTIONARY
360
1C6B
102
}
330
15CB
100
AcDbVisualStyle
  2
Dim
 70
    11
177
     2
291
     1
 71
     2
176
     1
 72
     2
176
     1
 73
     0
176
     1
 90
        0
176
     1
 40
0.6
176
     1
 41
30.0
176
     1
 62
     5
 63
     7
421
 16777215
176
     1
 74
     1
176
     1
 91
        4
176
     1
 64
     7
176
     1
 65
   257
176
     1
 75
     1
176
     1
175
     1
176
     1
 42
1.0
176
     1
 92
        8
176
     1
 66
     7
176
     1
 43
1.0
176
     1
 76
     1
176
     1
 77
     6
176
     1
 78
     2
176
     1
 67
     7
176
     1
 79
     5
176
     1
170
     0
176
     1
171
     0
176
     1
290
     0
176
     1
 93
        1
176
     1
 44
-50.0
176
     1
173
     0
176
     1
  0
VISUALSTYLE
  5
15DE
102
{ACAD_REACTORS
330
15CB
102
}
102
{ACAD_XDICTIONARY
360
1C7B
102
}
330
15CB
100
AcDbVisualStyle
  2
EdgeColorOff
 70
    22
177
     2
291
     1
 71
     2
176
     0
 72
     2
176
     0
 73
     0
176
     0
 90
        0
176
     0
 40
0.6
176
     0
 41
30.0
176
     0
 62
     5
 63
     7
421
 16777215
176
     0
 74
     1
176
     0
 91
        4
176
     0
 64
     7
176
     0
 65
   257
176
     0
 75
     1
176
     0
175
     1
176
     0
 42
1.0
176
     0
 92
        8
176
     2
 66
     7
176
     0
 43
1.0
176
     0
 76
     1
176
     0
 77
     6
176
     0
 78
     2
176
     0
 67
     7
176
     0
 79
     5
176
     0
170
     0
176
     0
171
     0
176
     0
290
     0
176
     0
 93
        1
176
     0
 44
0.0
176
     0
173
     0
176
     0
  0
VISUALSTYLE
  5
15DA
102
{ACAD_REACTORS
330
15CB
102
}
102
{ACAD_XDICTIONARY
360
1C73
102
}
330
15CB
100
AcDbVisualStyle
  2
Facepattern
 70
    15
177
     2
291
     1
 71
     2
176
     1
 72
     2
176
     1
 73
     0
176
     1
 90
        0
176
     1
 40
0.6
176
     1
 41
30.0
176
     1
 62
     5
 63
     7
421
 16777215
176
     1
 74
     1
176
     1
 91
        4
176
     1
 64
     7
176
     1
 65
   257
176
     1
 75
     1
176
     1
175
     1
176
     1
 42
1.0
176
     1
 92
        8
176
     1
 66
     7
176
     1
 43
1.0
176
     1
 76
     1
176
     1
 77
     6
176
     1
 78
     2
176
     1
 67
     7
176
     1
 79
     5
176
     1
170
     0
176
     1
171
     0
176
     1
290
     0
176
     1
 93
        1
176
     1
 44
0.0
176
     1
173
     0
176
     1
  0
VISUALSTYLE
  5
15CC
102
{ACAD_REACTORS
330
15CB
102
}
102
{ACAD_XDICTIONARY
360
1C57
102
}
330
15CB
100
AcDbVisualStyle
  2
Flat
 70
     0
177
     2
291
     1
 71
     2
176
     1
 72
     1
176
     1
 73
     1
176
     1
 90
        2
176
     1
 40
0.6
176
     1
 41
30.0
176
     1
 62
     5
 63
     7
421
 16777215
176
     1
 74
     0
176
     1
 91
        0
176
     1
 64
     7
176
     1
 65
   257
176
     1
 75
     1
176
     1
175
     1
176
     1
 42
1.0
176
     1
 92
        8
176
     1
 66
     7
176
     1
 43
1.0
176
     1
 76
     1
176
     1
 77
     6
176
     1
 78
     2
176
     1
 67
     7
176
     1
 79
     5
176
     1
170
     0
176
     1
171
     0
176
     1
290
     0
176
     1
 93
       13
176
     1
 44
0.0
176
     1
173
     0
176
     1
  0
VISUALSTYLE
  5
15CD
102
{ACAD_REACTORS
330
15CB
102
}
102
{ACAD_XDICTIONARY
360
1C59
102
}
330
15CB
100
AcDbVisualStyle
  2
FlatWithEdges
 70
     1
177
     2
291
     1
 71
     2
176
     1
 72
     1
176
     1
 73
     1
176
     1
 90
        2
176
     1
 40
0.6
176
     1
 41
30.0
176
     1
 62
     5
 63
     7
421
 16777215
176
     1
 74
     1
176
     1
 91
        0
176
     1
 64
     7
176
     1
 65
   257
176
     1
 75
     1
176
     1
175
     1
176
     1
 42
1.0
176
     1
 92
        0
176
     1
 66
   257
176
     1
 43
1.0
176
     1
 76
     1
176
     1
 77
     6
176
     1
 78
     2
176
     1
 67
     7
176
     1
 79
     5
176
     1
170
     0
176
     1
171
     0
176
     1
290
     0
176
     1
 93
       13
176
     1
 44
0.0
176
     1
173
     0
176
     1
  0
VISUALSTYLE
  5
15CE
102
{ACAD_REACTORS
330
15CB
102
}
102
{ACAD_XDICTIONARY
360
1C5B
102
}
330
15CB
100
AcDbVisualStyle
  2
Gouraud
 70
     2
177
     2
291
     1
 71
     2
176
     1
 72
     2
176
     1
 73
     1
176
     1
 90
        2
176
     1
 40
0.6
176
     1
 41
30.0
176
     1
 62
     5
 63
     7
421
 16777215
176
     1
 74
     0
176
     1
 91
        0
176
     1
 64
     7
176
     1
 65
   257
176
     1
 75
     1
176
     1
175
     1
176
     1
 42
1.0
176
     1
 92
        0
176
     1
 66
     7
176
     1
 43
1.0
176
     1
 76
     1
176
     1
 77
     6
176
     1
 78
     2
176
     1
 67
     7
176
     1
 79
     5
176
     1
170
     0
176
     1
171
     0
176
     1
290
     0
176
     1
 93
       13
176
     1
 44
0.0
176
     1
173
     0
176
     1
  0
VISUALSTYLE
  5
15CF
102
{ACAD_REACTORS
330
15CB
102
}
102
{ACAD_XDICTIONARY
360
1C5D
102
}
330
15CB
100
AcDbVisualStyle
  2
GouraudWithEdges
 70
     3
177
     2
291
     1
 71
     2
176
     1
 72
     2
176
     1
 73
     1
176
     1
 90
        2
176
     1
 40
0.6
176
     1
 41
30.0
176
     1
 62
     5
 63
     7
421
 16777215
176
     1
 74
     1
176
     1
 91
        0
176
     1
 64
     7
176
     1
 65
   257
176
     1
 75
     1
176
     1
175
     1
176
     1
 42
1.0
176
     1
 92
        0
176
     1
 66
   257
176
     1
 43
1.0
176
     1
 76
     1
176
     1
 77
     6
176
     1
 78
     2
176
     1
 67
     7
176
     1
 79
     5
176
     1
170
     0
176
     1
171
     0
176
     1
290
     0
176
     1
 93
       13
176
     1
 44
0.0
176
     1
173
     0
176
     1
  0
VISUALSTYLE
  5
15D2
102
{ACAD_REACTORS
330
15CB
102
}
102
{ACAD_XDICTIONARY
360
1C63
102
}
330
15CB
100
AcDbVisualStyle
  2
Hidden
 70
     6
177
     2
291
     0
 71
     1
176
     1
 72
     2
176
     1
 73
     2
176
     1
 90
        0
176
     1
 40
0.6
176
     1
 41
30.0
176
     1
 62
     5
 63
     7
421
 16777215
176
     1
 74
     2
176
     1
 91
        2
176
     1
 64
     7
176
     1
 65
   257
176
     1
 75
     2
176
     1
175
     1
176
     1
 42
40.0
176
     1
 92
        0
176
     1
 66
   257
176
     1
 43
1.0
176
     1
 76
     1
176
     1
 77
     6
176
     1
 78
     2
176
     1
 67
     7
176
     1
 79
     3
176
     1
170
     0
176
     1
171
     0
176
     1
290
     0
176
     1
 93
        1
176
     1
 44
0.0
176
     1
173
     0
176
     1
  0
VISUALSTYLE
  5
15DC
102
{ACAD_REACTORS
330
15CB
102
}
102
{ACAD_XDICTIONARY
360
1C77
102
}
330
15CB
100
AcDbVisualStyle
  2
JitterOff
 70
    20
177
     2
291
     1
 71
     2
176
     0
 72
     2
176
     0
 73
     0
176
     0
 90
        0
176
     0
 40
0.6
176
     0
 41
30.0
176
     0
 62
     5
 63
     7
421
 16777215
176
     0
 74
     1
176
     0
 91
        4
176
     0
 64
     7
176
     0
 65
   257
176
     0
 75
     1
176
     0
175
     1
176
     0
 42
1.0
176
     0
 92
       10
176
     2
 66
     7
176
     0
 43
1.0
176
     0
 76
     1
176
     0
 77
     6
176
     0
 78
     2
176
     0
 67
     7
176
     0
 79
     5
176
     0
170
     0
176
     0
171
     0
176
     0
290
     0
176
     0
 93
        1
176
     0
 44
0.0
176
     0
173
     0
176
     0
  0
VISUALSTYLE
  5
15D9
102
{ACAD_REACTORS
330
15CB
102
}
102
{ACAD_XDICTIONARY
360
1C71
102
}
330
15CB
100
AcDbVisualStyle
  2
Linepattern
 70
    14
177
     2
291
     1
 71
     2
176
     1
 72
     2
176
     1
 73
     0
176
     1
 90
        0
176
     1
 40
0.6
176
     1
 41
30.0
176
     1
 62
     5
 63
     7
421
 16777215
176
     1
 74
     1
176
     1
 91
        4
176
     1
 64
     7
176
     1
 65
   257
176
     1
 75
     7
176
     1
175
     7
176
     1
 42
1.0
176
     1
 92
        8
176
     1
 66
     7
176
     1
 43
1.0
176
     1
 76
     1
176
     1
 77
     6
176
     1
 78
     2
176
     1
 67
     7
176
     1
 79
     5
176
     1
170
     0
176
     1
171
     0
176
     1
290
     0
176
     1
 93
        1
176
     1
 44
0.0
176
     1
173
     0
176
     1
  0
VISUALSTYLE
  5
15EC
102
{ACAD_REACTORS
330
15CB
102
}
102
{ACAD_XDICTIONARY
360
1C87
102
}
330
15CB
100
AcDbVisualStyle
  2
Modeling
 70
    10
177
     2
291
     0
 71
     2
176
     1
 72
     3
176
     1
 73
     0
176
     1
 90
        2
176
     1
 40
0.6
176
     1
 41
30.0
176
     1
 62
     5
 63
     7
421
 16777215
176
     1
 74
     2
176
     1
 91
        0
176
     1
 64
     7
176
     1
 65
   257
176
     1
 75
     1
176
     1
175
     1
176
     1
 42
180.0
176
     1
 92
        8
176
     1
 66
     8
424
  7895160
176
     1
 43
1.0
176
     1
 76
     1
176
     1
 77
     6
176
     1
 78
     2
176
     1
 67
     7
176
     1
 79
     5
176
     1
170
     0
176
     1
171
     0
176
     1
290
     0
176
     1
 93
       13
176
     1
 44
0.0
176
     1
173
     0
176
     1
  0
VISUALSTYLE
  5
15DD
102
{ACAD_REACTORS
330
15CB
102
}
102
{ACAD_XDICTIONARY
360
1C79
102
}
330
15CB
100
AcDbVisualStyle
  2
OverhangOff
 70
    21
177
     2
291
     1
 71
     2
176
     0
 72
     2
176
     0
 73
     0
176
     0
 90
        0
176
     0
 40
0.6
176
     0
 41
30.0
176
     0
 62
     5
 63
     7
421
 16777215
176
     0
 74
     1
176
     0
 91
        4
176
     0
 64
     7
176
     0
 65
   257
176
     0
 75
     1
176
     0
175
     1
176
     0
 42
1.0
176
     0
 92
        9
176
     2
 66
     7
176
     0
 43
1.0
176
     0
 76
     1
176
     0
 77
     6
176
     0
 78
     2
176
     0
 67
     7
176
     0
 79
     5
176
     0
170
     0
176
     0
171
     0
176
     0
290
     0
176
     0
 93
        1
176
     0
 44
0.0
176
     0
173
     0
176
     0
  0
VISUALSTYLE
  5
15D4
102
{ACAD_REACTORS
330
15CB
102
}
102
{ACAD_XDICTIONARY
360
1C67
102
}
330
15CB
100
AcDbVisualStyle
  2
Realistic
 70
     8
177
     2
291
     0
 71
     2
176
     1
 72
     3
176
     1
 73
     0
176
     1
 90
        2
176
     1
 40
0.6
176
     1
 41
30.0
176
     1
 62
     5
 63
     7
421
 16777215
176
     1
 74
     0
176
     1
 91
        0
176
     1
 64
     7
176
     1
 65
   257
176
     1
 75
     1
176
     1
175
     1
176
     1
 42
1.0
176
     1
 92
        8
176
     1
 66
   257
176
     1
 43
1.0
176
     1
 76
     1
176
     1
 77
     6
176
     1
 78
     2
176
     1
 67
     7
176
     1
 79
     3
176
     1
170
     0
176
     1
171
     0
176
     1
290
     0
176
     1
 93
       13
176
     1
 44
0.0
176
     1
173
     0
176
     1
  0
VISUALSTYLE
  5
15E3
102
{ACAD_REACTORS
330
15CB
102
}
102
{ACAD_XDICTIONARY
360
1C85
102
}
330
15CB
100
AcDbVisualStyle
  2
Shaded
 70
    27
177
     2
291
     0
 71
     2
176
     1
 72
     2
176
     1
 73
     1
176
     1
 90
        2
176
     1
 40
0.6
176
     1
 41
30.0
176
     1
 62
     5
 63
     7
421
 16777215
176
     1
 74
     0
176
     1
 91
        4
176
     1
 64
     7
176
     1
 65
   257
176
     1
 75
     1
176
     1
175
     1
176
     1
 42
1.0
176
     1
 92
        8
176
     1
 66
   257
176
     1
 43
1.0
176
     1
 76
     1
176
     1
 77
     6
176
     1
 78
     2
176
     1
 67
     8
425
  7895160
176
     1
 79
     3
176
     1
170
     0
176
     1
171
     0
176
     1
290
     0
176
     1
 93
        5
176
     1
 44
0.0
176
     1
173
     0
176
     1
  0
VISUALSTYLE
  5
15E2
102
{ACAD_REACTORS
330
15CB
102
}
102
{ACAD_XDICTIONARY
360
1C83
102
}
330
15CB
100
AcDbVisualStyle
  2
Shaded with edges
 70
    26
177
     2
291
     0
 71
     2
176
     1
 72
     2
176
     1
 73
     1
176
     1
 90
        2
176
     1
 40
0.6
176
     1
 41
30.0
176
     1
 62
     5
 63
     7
421
 16777215
176
     1
 74
     1
176
     1
 91
       10
176
     1
 64
     7
176
     1
 65
   257
176
     1
 75
     2
176
     1
175
     1
176
     1
 42
1.0
176
     1
 92
        8
176
     1
 66
   257
176
     1
 43
1.0
176
     1
 76
     1
176
     1
 77
     6
176
     1
 78
     2
176
     1
 67
     7
176
     1
 79
     3
176
     1
170
     0
176
     1
171
     0
176
     1
290
     0
176
     1
 93
        5
176
     1
 44
0.0
176
     1
173
     0
176
     1
  0
VISUALSTYLE
  5
15DF
102
{ACAD_REACTORS
330
15CB
102
}
102
{ACAD_XDICTIONARY
360
1C7D
102
}
330
15CB
100
AcDbVisualStyle
  2
Shades of Gray
 70
    23
177
     2
291
     0
 71
     2
176
     1
 72
     2
176
     1
 73
     3
176
     1
 90
        0
176
     1
 40
0.6
176
     1
 41
30.0
176
     1
 62
     5
 63
     7
421
 16777215
176
     1
 74
     2
176
     1
 91
        2
176
     1
 64
     7
176
     1
 65
     7
176
     1
 75
     1
176
     1
175
     1
176
     1
 42
40.0
176
     1
 92
        8
176
     1
 66
     7
176
     1
 43
1.0
176
     1
 76
     1
176
     1
 77
     6
176
     1
 78
     2
176
     1
 67
     7
176
     1
 79
     3
176
     1
170
     0
176
     1
171
     0
176
     1
290
     0
176
     1
 93
        1
176
     1
 44
0.0
176
     1
173
     0
176
     1
  0
VISUALSTYLE
  5
15E0
102
{ACAD_REACTORS
330
15CB
102
}
102
{ACAD_XDICTIONARY
360
1C7F
102
}
330
15CB
100
AcDbVisualStyle
  2
Sketchy
 70
    24
177
     2
291
     0
 71
     1
176
     1
 72
     2
176
     1
 73
     2
176
     1
 90
        0
176
     1
 40
0.6
176
     1
 41
30.0
176
     1
 62
     5
 63
     7
421
 16777215
176
     1
 74
     2
176
     1
 91
        2
176
     1
 64
     7
176
     1
 65
     7
176
     1
 75
     1
176
     1
175
     1
176
     1
 42
40.0
176
     1
 92
       11
176
     1
 66
     7
176
     1
 43
1.0
176
     1
 76
     1
176
     1
 77
     6
176
     1
 78
     2
176
     1
 67
     7
176
     1
 79
     6
176
     1
170
     0
176
     1
171
     0
176
     1
290
     0
176
     1
 93
        1
176
     1
 44
0.0
176
     1
173
     0
176
     1
  0
VISUALSTYLE
  5
15D8
102
{ACAD_REACTORS
330
15CB
102
}
102
{ACAD_XDICTIONARY
360
1C6F
102
}
330
15CB
100
AcDbVisualStyle
  2
Thicken
 70
    13
177
     2
291
     1
 71
     2
176
     1
 72
     2
176
     1
 73
     0
176
     1
 90
        0
176
     1
 40
0.6
176
     1
 41
30.0
176
     1
 62
     5
 63
     7
421
 16777215
176
     1
 74
     1
176
     1
 91
        4
176
     1
 64
     7
176
     1
 65
   257
176
     1
 75
     1
176
     1
175
     1
176
     1
 42
1.0
176
     1
 92
       12
176
     1
 66
     7
176
     1
 43
1.0
176
     1
 76
     1
176
     1
 77
     6
176
     1
 78
     2
176
     1
 67
     7
176
     1
 79
     5
176
     1
170
     0
176
     1
171
     0
176
     1
290
     0
176
     1
 93
        1
176
     1
 44
0.0
176
     1
173
     0
176
     1
  0
VISUALSTYLE
  5
15D1
102
{ACAD_REACTORS
330
15CB
102
}
102
{ACAD_XDICTIONARY
360
1C61
102
}
330
15CB
100
AcDbVisualStyle
  2
Wireframe
 70
     5
177
     2
291
     0
 71
     0
176
     1
 72
     2
176
     1
 73
     0
176
     1
 90
        0
176
     1
 40
0.6
176
     1
 41
30.0
176
     1
 62
     5
 63
     7
421
 16777215
176
     1
 74
     1
176
     1
 91
        4
176
     1
 64
     7
176
     1
 65
   257
176
     1
 75
     1
176
     1
175
     1
176
     1
 42
1.0
176
     1
 92
        0
176
     1
 66
   257
176
     1
 43
1.0
176
     1
 76
     1
176
     1
 77
     6
176
     1
 78
     2
176
     1
 67
     7
176
     1
 79
     3
176
     1
170
     0
176
     1
171
     0
176
     1
290
     0
176
     1
 93
        1
176
     1
 44
0.0
176
     1
173
     0
176
     1
  0
VISUALSTYLE
  5
15E1
102
{ACAD_REACTORS
330
15CB
102
}
102
{ACAD_XDICTIONARY
360
1C81
102
}
330
15CB
100
AcDbVisualStyle
  2
X-Ray
 70
    25
177
     2
291
     0
 71
     2
176
     1
 72
     2
176
     1
 73
     1
176
     1
 90
        1
176
     1
 40
0.5
176
     1
 41
30.0
176
     1
 62
     5
 63
     7
421
 16777215
176
     1
 74
     1
176
     1
 91
        0
176
     1
 64
     7
176
     1
 65
   257
176
     1
 75
     1
176
     1
175
     1
176
     1
 42
1.0
176
     1
 92
        8
176
     1
 66
     7
176
     1
 43
1.0
176
     1
 76
     1
176
     1
 77
     6
176
     1
 78
     2
176
     1
 67
     7
176
     1
 79
     3
176
     1
170
     0
176
     1
171
     0
176
     1
290
     0
176
     1
 93
       13
176
     1
 44
0.0
176
     1
173
     0
176
     1
  0
DICTIONARYVAR
  5
15F5
102
{ACAD_REACTORS
330
15F4
102
}
330
15F4
100
DictionaryVariables
280
     0
  1
1:1
  0
DICTIONARYVAR
  5
1637
102
{ACAD_REACTORS
330
15F4
102
}
330
15F4
100
DictionaryVariables
280
     0
  1
Standard
  0
DICTIONARYVAR
  5
1636
102
{ACAD_REACTORS
330
15F4
102
}
330
15F4
100
DictionaryVariables
280
     0
  1
Standard
  0
DICTIONARYVAR
  5
1638
102
{ACAD_REACTORS
330
15F4
102
}
330
15F4
100
DictionaryVariables
280
     0
  1
0
  0
DICTIONARYVAR
  5
15F6
102
{ACAD_REACTORS
330
15F4
102
}
330
15F4
100
DictionaryVariables
280
     0
  1
2
  0
TABLECONTENT
  5
1C53
330
1C56
100
AcDbLinkedData
  1

300

100
AcDbLinkedTableData
 90
        4
300
COLUMN
  1
LINKEDTABLEDATACOLUMN_BEGIN
300

 91
        0
301
CUSTOMDATA
  1
DATAMAP_BEGIN
 90
        0
309
DATAMAP_END
309
LINKEDTABLEDATACOLUMN_END
  1
FORMATTEDTABLEDATACOLUMN_BEGIN
300
COLUMNTABLEFORMAT
  1
TABLEFORMAT_BEGIN
 90
        3
170
     1
 91
      128
 92
        0
 62
   257
 93
        1
300
CONTENTFORMAT
  1
CONTENTFORMAT_BEGIN
 90
      128
 91
        0
 92
      512
 93
        0
300

 40
0.0
140
1.0
 94
        1
 62
     0
340
0
144
0.225
309
CONTENTFORMAT_END
171
     0
 94
        0
309
TABLEFORMAT_END
309
FORMATTEDTABLEDATACOLUMN_END
  1
TABLECOLUMN_BEGIN
 90
        0
 40
37.5
309
TABLECOLUMN_END
300
COLUMN
  1
LINKEDTABLEDATACOLUMN_BEGIN
300

 91
        0
301
CUSTOMDATA
  1
DATAMAP_BEGIN
 90
        0
309
DATAMAP_END
309
LINKEDTABLEDATACOLUMN_END
  1
FORMATTEDTABLEDATACOLUMN_BEGIN
300
COLUMNTABLEFORMAT
  1
TABLEFORMAT_BEGIN
 90
        3
170
     1
 91
      128
 92
        0
 62
   257
 93
        1
300
CONTENTFORMAT
  1
CONTENTFORMAT_BEGIN
 90
      128
 91
        0
 92
      512
 93
        0
300

 40
0.0
140
1.0
 94
        1
 62
     0
340
0
144
0.225
309
CONTENTFORMAT_END
171
     0
 94
        0
309
TABLEFORMAT_END
309
FORMATTEDTABLEDATACOLUMN_END
  1
TABLECOLUMN_BEGIN
 90
        0
 40
50.0
309
TABLECOLUMN_END
300
COLUMN
  1
LINKEDTABLEDATACOLUMN_BEGIN
300

 91
        0
301
CUSTOMDATA
  1
DATAMAP_BEGIN
 90
        0
309
DATAMAP_END
309
LINKEDTABLEDATACOLUMN_END
  1
FORMATTEDTABLEDATACOLUMN_BEGIN
300
COLUMNTABLEFORMAT
  1
TABLEFORMAT_BEGIN
 90
        3
170
     1
 91
      128
 92
        0
 62
   257
 93
        1
300
CONTENTFORMAT
  1
CONTENTFORMAT_BEGIN
 90
      128
 91
        0
 92
      512
 93
        0
300

 40
0.0
140
1.0
 94
        1
 62
     0
340
0
144
0.225
309
CONTENTFORMAT_END
171
     0
 94
        0
309
TABLEFORMAT_END
309
FORMATTEDTABLEDATACOLUMN_END
  1
TABLECOLUMN_BEGIN
 90
        0
 40
37.5
309
TABLECOLUMN_END
300
COLUMN
  1
LINKEDTABLEDATACOLUMN_BEGIN
300

 91
        0
301
CUSTOMDATA
  1
DATAMAP_BEGIN
 90
        0
309
DATAMAP_END
309
LINKEDTABLEDATACOLUMN_END
  1
FORMATTEDTABLEDATACOLUMN_BEGIN
300
COLUMNTABLEFORMAT
  1
TABLEFORMAT_BEGIN
 90
        3
170
     1
 91
      128
 92
        0
 62
   257
 93
        1
300
CONTENTFORMAT
  1
CONTENTFORMAT_BEGIN
 90
      128
 91
        0
 92
      512
 93
        0
300

 40
0.0
140
1.0
 94
        1
 62
     0
340
0
144
0.225
309
CONTENTFORMAT_END
171
     0
 94
        0
309
TABLEFORMAT_END
309
FORMATTEDTABLEDATACOLUMN_END
  1
TABLECOLUMN_BEGIN
 90
        0
 40
325.0
309
TABLECOLUMN_END
 91
        5
301
ROW
  1
LINKEDTABLEDATAROW_BEGIN
 90
        4
300
CELL
  1
LINKEDTABLEDATACELL_BEGIN
 90
        0
300

 91
        0
301
CUSTOMDATA
  1
DATAMAP_BEGIN
 90
        0
309
DATAMAP_END
 92
        0
 95
        1
302
CONTENT
  1
CELLCONTENT_BEGIN
 90
        1
300
VALUE
 93
        0
 90
        4
  1
符号
 94
        0
300

302

304
ACVALUE_END
 91
        0
309
CELLCONTENT_END
  1
FORMATTEDCELLCONTENT_BEGIN
170
     1
300
CONTENTFORMAT
  1
CONTENTFORMAT_BEGIN
 90
      129
 91
        0
 92
        4
 93
        0
300

 40
0.0
140
1.0
 94
        1
 62
     0
340
0
144
7.5
309
CONTENTFORMAT_END
309
FORMATTEDCELLCONTENT_END
309
LINKEDTABLEDATACELL_END
  1
FORMATTEDTABLEDATACELL_BEGIN
300
CELLTABLEFORMAT
  1
TABLEFORMAT_BEGIN
 90
        1
170
     1
 91
   408576
 92
        0
 62
   257
 93
        1
300
CONTENTFORMAT
  1
CONTENTFORMAT_BEGIN
 90
        0
 91
        0
 92
      512
 93
        0
300

 40
0.0
140
1.0
 94
        1
 62
     0
340
0
144
0.18
309
CONTENTFORMAT_END
171
     1
301
MARGIN
  1
CELLMARGIN_BEGIN
 40
1.875
 40
1.875
 40
1.875
 40
1.875
 40
1.875
 40
1.875
309
CELLMARGIN_END
 94
        0
309
TABLEFORMAT_END
309
FORMATTEDTABLEDATACELL_END
  1
TABLECELL_BEGIN
 90
        2
 91
        0
309
TABLECELL_END
300
CELL
  1
LINKEDTABLEDATACELL_BEGIN
 90
        0
300

 91
        0
301
CUSTOMDATA
  1
DATAMAP_BEGIN
 90
        0
309
DATAMAP_END
 92
        0
 95
        1
302
CONTENT
  1
CELLCONTENT_BEGIN
 90
        1
300
VALUE
 93
        0
 90
        4
  1
日付
 94
        0
300

302

304
ACVALUE_END
 91
        0
309
CELLCONTENT_END
  1
FORMATTEDCELLCONTENT_BEGIN
170
     1
300
CONTENTFORMAT
  1
CONTENTFORMAT_BEGIN
 90
      129
 91
        0
 92
        4
 93
        0
300

 40
0.0
140
1.0
 94
        1
 62
     0
340
0
144
7.5
309
CONTENTFORMAT_END
309
FORMATTEDCELLCONTENT_END
309
LINKEDTABLEDATACELL_END
  1
FORMATTEDTABLEDATACELL_BEGIN
300
CELLTABLEFORMAT
  1
TABLEFORMAT_BEGIN
 90
        1
170
     1
 91
   408576
 92
        0
 62
   257
 93
        1
300
CONTENTFORMAT
  1
CONTENTFORMAT_BEGIN
 90
        0
 91
        0
 92
      512
 93
        0
300

 40
0.0
140
1.0
 94
        1
 62
     0
340
0
144
0.18
309
CONTENTFORMAT_END
171
     1
301
MARGIN
  1
CELLMARGIN_BEGIN
 40
1.875
 40
1.875
 40
1.875
 40
1.875
 40
1.875
 40
1.875
309
CELLMARGIN_END
 94
        0
309
TABLEFORMAT_END
309
FORMATTEDTABLEDATACELL_END
  1
TABLECELL_BEGIN
 90
        2
 91
        0
309
TABLECELL_END
300
CELL
  1
LINKEDTABLEDATACELL_BEGIN
 90
        0
300

 91
        0
301
CUSTOMDATA
  1
DATAMAP_BEGIN
 90
        0
309
DATAMAP_END
 92
        0
 95
        1
302
CONTENT
  1
CELLCONTENT_BEGIN
 90
        1
300
VALUE
 93
        0
 90
        4
  1
訂正者
 94
        0
300

302

304
ACVALUE_END
 91
        0
309
CELLCONTENT_END
  1
FORMATTEDCELLCONTENT_BEGIN
170
     1
300
CONTENTFORMAT
  1
CONTENTFORMAT_BEGIN
 90
      129
 91
        0
 92
        4
 93
        0
300

 40
0.0
140
1.0
 94
        1
 62
     0
340
0
144
7.5
309
CONTENTFORMAT_END
309
FORMATTEDCELLCONTENT_END
309
LINKEDTABLEDATACELL_END
  1
FORMATTEDTABLEDATACELL_BEGIN
300
CELLTABLEFORMAT
  1
TABLEFORMAT_BEGIN
 90
        1
170
     1
 91
   408576
 92
        0
 62
   257
 93
        1
300
CONTENTFORMAT
  1
CONTENTFORMAT_BEGIN
 90
        0
 91
        0
 92
      512
 93
        0
300

 40
0.0
140
1.0
 94
        1
 62
     0
340
0
144
0.18
309
CONTENTFORMAT_END
171
     1
301
MARGIN
  1
CELLMARGIN_BEGIN
 40
1.875
 40
1.875
 40
1.875
 40
1.875
 40
1.875
 40
1.875
309
CELLMARGIN_END
 94
        0
309
TABLEFORMAT_END
309
FORMATTEDTABLEDATACELL_END
  1
TABLECELL_BEGIN
 90
        2
 91
        0
309
TABLECELL_END
300
CELL
  1
LINKEDTABLEDATACELL_BEGIN
 90
        0
300

 91
        0
301
CUSTOMDATA
  1
DATAMAP_BEGIN
 90
        0
309
DATAMAP_END
 92
        0
 95
        1
302
CONTENT
  1
CELLCONTENT_BEGIN
 90
        1
300
VALUE
 93
        0
 90
        4
  1
訂正概要
 94
        0
300

302

304
ACVALUE_END
 91
        0
309
CELLCONTENT_END
  1
FORMATTEDCELLCONTENT_BEGIN
170
     1
300
CONTENTFORMAT
  1
CONTENTFORMAT_BEGIN
 90
      129
 91
        0
 92
        4
 93
        0
300

 40
0.0
140
1.0
 94
        1
 62
     0
340
0
144
7.5
309
CONTENTFORMAT_END
309
FORMATTEDCELLCONTENT_END
309
LINKEDTABLEDATACELL_END
  1
FORMATTEDTABLEDATACELL_BEGIN
300
CELLTABLEFORMAT
  1
TABLEFORMAT_BEGIN
 90
        1
170
     1
 91
   408576
 92
        0
 62
   257
 93
        1
300
CONTENTFORMAT
  1
CONTENTFORMAT_BEGIN
 90
        0
 91
        0
 92
      512
 93
        0
300

 40
0.0
140
1.0
 94
        1
 62
     0
340
0
144
0.18
309
CONTENTFORMAT_END
171
     1
301
MARGIN
  1
CELLMARGIN_BEGIN
 40
1.875
 40
1.875
 40
1.875
 40
1.875
 40
1.875
 40
1.875
309
CELLMARGIN_END
 94
        0
309
TABLEFORMAT_END
309
FORMATTEDTABLEDATACELL_END
  1
TABLECELL_BEGIN
 90
        2
 91
        0
309
TABLECELL_END
 91
        0
301
CUSTOMDATA
  1
DATAMAP_BEGIN
 90
        0
309
DATAMAP_END
309
LINKEDTABLEDATAROW_END
  1
FORMATTEDTABLEDATAROW_BEGIN
300
ROWTABLEFORMAT
  1
TABLEFORMAT_BEGIN
 90
        2
170
     1
 91
      128
 92
        0
 62
   257
 93
        1
300
CONTENTFORMAT
  1
CONTENTFORMAT_BEGIN
 90
      128
 91
        0
 92
      512
 93
        0
300

 40
0.0
140
1.0
 94
        1
 62
     0
340
0
144
7.5
309
CONTENTFORMAT_END
171
     0
 94
        0
309
TABLEFORMAT_END
309
FORMATTEDTABLEDATAROW_END
  1
TABLEROW_BEGIN
 90
        1
 40
13.75
309
TABLEROW_END
301
ROW
  1
LINKEDTABLEDATAROW_BEGIN
 90
        4
300
CELL
  1
LINKEDTABLEDATACELL_BEGIN
 90
        0
300

 91
        0
301
CUSTOMDATA
  1
DATAMAP_BEGIN
 90
        0
309
DATAMAP_END
 92
        0
 95
        3
302
CONTENT
  1
CELLCONTENT_BEGIN
 90
        1
300
VALUE
 93
        0
 90
        4
  1

 94
        0
300

302

304
ACVALUE_END
 91
        0
309
CELLCONTENT_END
  1
FORMATTEDCELLCONTENT_BEGIN
170
     1
300
CONTENTFORMAT
  1
CONTENTFORMAT_BEGIN
 90
      129
 91
        0
 92
        4
 93
        0
300

 40
0.0
140
1.0
 94
        1
 62
     0
340
0
144
7.5
309
CONTENTFORMAT_END
309
FORMATTEDCELLCONTENT_END
302
CONTENT
  1
CELLCONTENT_BEGIN
 90
        4
340
0
 91
        0
309
CELLCONTENT_END
  1
FORMATTEDCELLCONTENT_BEGIN
170
     1
300
CONTENTFORMAT
  1
CONTENTFORMAT_BEGIN
 90
        8
 91
        0
 92
      512
 93
        0
300

 40
0.0
140
1.0
 94
        1
 62
     0
340
0
144
0.18
309
CONTENTFORMAT_END
309
FORMATTEDCELLCONTENT_END
302
CONTENT
  1
CELLCONTENT_BEGIN
 90
        4
340
16AB
 91
        0
309
CELLCONTENT_END
  1
FORMATTEDCELLCONTENT_BEGIN
170
     1
300
CONTENTFORMAT
  1
CONTENTFORMAT_BEGIN
 90
      264
 91
      256
 92
      512
 93
        0
300

 40
0.0
140
1.0
 94
        1
 62
     0
340
0
144
0.18
309
CONTENTFORMAT_END
309
FORMATTEDCELLCONTENT_END
309
LINKEDTABLEDATACELL_END
  1
FORMATTEDTABLEDATACELL_BEGIN
300
CELLTABLEFORMAT
  1
TABLEFORMAT_BEGIN
 90
        1
170
     1
 91
   408592
 92
        0
 62
   257
 93
        1
300
CONTENTFORMAT
  1
CONTENTFORMAT_BEGIN
 90
       16
 91
        0
 92
      512
 93
        0
300

 40
0.0
140
1.0
 94
        5
 62
     0
340
0
144
0.18
309
CONTENTFORMAT_END
171
     1
301
MARGIN
  1
CELLMARGIN_BEGIN
 40
1.875
 40
1.875
 40
1.875
 40
1.875
 40
1.875
 40
1.875
309
CELLMARGIN_END
 94
        0
309
TABLEFORMAT_END
309
FORMATTEDTABLEDATACELL_END
  1
TABLECELL_BEGIN
 90
        3
 91
        0
309
TABLECELL_END
300
CELL
  1
LINKEDTABLEDATACELL_BEGIN
 90
        0
300

 91
        0
301
CUSTOMDATA
  1
DATAMAP_BEGIN
 90
        0
309
DATAMAP_END
 92
        0
 95
        1
302
CONTENT
  1
CELLCONTENT_BEGIN
 90
        1
300
VALUE
 93
        0
 90
        4
  1

 94
        0
300

302

304
ACVALUE_END
 91
        0
309
CELLCONTENT_END
  1
FORMATTEDCELLCONTENT_BEGIN
170
     1
300
CONTENTFORMAT
  1
CONTENTFORMAT_BEGIN
 90
      129
 91
        0
 92
        4
 93
        0
300

 40
0.0
140
1.0
 94
        1
 62
     0
340
0
144
7.5
309
CONTENTFORMAT_END
309
FORMATTEDCELLCONTENT_END
309
LINKEDTABLEDATACELL_END
  1
FORMATTEDTABLEDATACELL_BEGIN
300
CELLTABLEFORMAT
  1
TABLEFORMAT_BEGIN
 90
        1
170
     1
 91
   408592
 92
        0
 62
   257
 93
        1
300
CONTENTFORMAT
  1
CONTENTFORMAT_BEGIN
 90
       16
 91
        0
 92
      512
 93
        0
300

 40
0.0
140
1.0
 94
        5
 62
     0
340
0
144
0.18
309
CONTENTFORMAT_END
171
     1
301
MARGIN
  1
CELLMARGIN_BEGIN
 40
1.875
 40
1.875
 40
1.875
 40
1.875
 40
1.875
 40
1.875
309
CELLMARGIN_END
 94
        0
309
TABLEFORMAT_END
309
FORMATTEDTABLEDATACELL_END
  1
TABLECELL_BEGIN
 90
        3
 91
        0
309
TABLECELL_END
300
CELL
  1
LINKEDTABLEDATACELL_BEGIN
 90
        0
300

 91
        0
301
CUSTOMDATA
  1
DATAMAP_BEGIN
 90
        0
309
DATAMAP_END
 92
        0
 95
        1
302
CONTENT
  1
CELLCONTENT_BEGIN
 90
        1
300
VALUE
 93
        0
 90
        4
  1

 94
        0
300

302

304
ACVALUE_END
 91
        0
309
CELLCONTENT_END
  1
FORMATTEDCELLCONTENT_BEGIN
170
     1
300
CONTENTFORMAT
  1
CONTENTFORMAT_BEGIN
 90
      129
 91
        0
 92
        4
 93
        0
300

 40
0.0
140
1.0
 94
        1
 62
     0
340
0
144
7.5
309
CONTENTFORMAT_END
309
FORMATTEDCELLCONTENT_END
309
LINKEDTABLEDATACELL_END
  1
FORMATTEDTABLEDATACELL_BEGIN
300
CELLTABLEFORMAT
  1
TABLEFORMAT_BEGIN
 90
        1
170
     1
 91
   408592
 92
        0
 62
   257
 93
        1
300
CONTENTFORMAT
  1
CONTENTFORMAT_BEGIN
 90
       16
 91
        0
 92
      512
 93
        0
300

 40
0.0
140
1.0
 94
        5
 62
     0
340
0
144
0.18
309
CONTENTFORMAT_END
171
     1
301
MARGIN
  1
CELLMARGIN_BEGIN
 40
1.875
 40
1.875
 40
1.875
 40
1.875
 40
1.875
 40
1.875
309
CELLMARGIN_END
 94
        0
309
TABLEFORMAT_END
309
FORMATTEDTABLEDATACELL_END
  1
TABLECELL_BEGIN
 90
        3
 91
        0
309
TABLECELL_END
300
CELL
  1
LINKEDTABLEDATACELL_BEGIN
 90
        0
300

 91
        0
301
CUSTOMDATA
  1
DATAMAP_BEGIN
 90
        0
309
DATAMAP_END
 92
        0
 95
        1
302
CONTENT
  1
CELLCONTENT_BEGIN
 90
        1
300
VALUE
 93
        0
 90
        4
  1

 94
        0
300

302

304
ACVALUE_END
 91
        0
309
CELLCONTENT_END
  1
FORMATTEDCELLCONTENT_BEGIN
170
     1
300
CONTENTFORMAT
  1
CONTENTFORMAT_BEGIN
 90
      129
 91
        0
 92
        4
 93
        0
300

 40
0.0
140
1.0
 94
        1
 62
     0
340
0
144
7.5
309
CONTENTFORMAT_END
309
FORMATTEDCELLCONTENT_END
309
LINKEDTABLEDATACELL_END
  1
FORMATTEDTABLEDATACELL_BEGIN
300
CELLTABLEFORMAT
  1
TABLEFORMAT_BEGIN
 90
        1
170
     1
 91
   408592
 92
        0
 62
   257
 93
        1
300
CONTENTFORMAT
  1
CONTENTFORMAT_BEGIN
 90
       16
 91
        0
 92
      512
 93
        0
300

 40
0.0
140
1.0
 94
        4
 62
     0
340
0
144
0.18
309
CONTENTFORMAT_END
171
     1
301
MARGIN
  1
CELLMARGIN_BEGIN
 40
1.875
 40
1.875
 40
1.875
 40
1.875
 40
1.875
 40
1.875
309
CELLMARGIN_END
 94
        0
309
TABLEFORMAT_END
309
FORMATTEDTABLEDATACELL_END
  1
TABLECELL_BEGIN
 90
        3
 91
        0
309
TABLECELL_END
 91
        0
301
CUSTOMDATA
  1
DATAMAP_BEGIN
 90
        0
309
DATAMAP_END
309
LINKEDTABLEDATAROW_END
  1
FORMATTEDTABLEDATAROW_BEGIN
300
ROWTABLEFORMAT
  1
TABLEFORMAT_BEGIN
 90
        2
170
     1
 91
      128
 92
        0
 62
   257
 93
        1
300
CONTENTFORMAT
  1
CONTENTFORMAT_BEGIN
 90
      128
 91
        0
 92
      512
 93
        0
300

 40
0.0
140
1.0
 94
        1
 62
     0
340
0
144
7.5
309
CONTENTFORMAT_END
171
     0
 94
        0
309
TABLEFORMAT_END
309
FORMATTEDTABLEDATAROW_END
  1
TABLEROW_BEGIN
 90
        2
 40
13.75
309
TABLEROW_END
301
ROW
  1
LINKEDTABLEDATAROW_BEGIN
 90
        4
300
CELL
  1
LINKEDTABLEDATACELL_BEGIN
 90
        0
300

 91
        0
301
CUSTOMDATA
  1
DATAMAP_BEGIN
 90
        0
309
DATAMAP_END
 92
        0
 95
        2
302
CONTENT
  1
CELLCONTENT_BEGIN
 90
        1
300
VALUE
 93
        0
 90
        4
  1

 94
        0
300

302

304
ACVALUE_END
 91
        0
309
CELLCONTENT_END
  1
FORMATTEDCELLCONTENT_BEGIN
170
     1
300
CONTENTFORMAT
  1
CONTENTFORMAT_BEGIN
 90
      129
 91
        0
 92
        4
 93
        0
300

 40
0.0
140
1.0
 94
        1
 62
     0
340
0
144
7.5
309
CONTENTFORMAT_END
309
FORMATTEDCELLCONTENT_END
302
CONTENT
  1
CELLCONTENT_BEGIN
 90
        4
340
16B7
 91
        0
309
CELLCONTENT_END
  1
FORMATTEDCELLCONTENT_BEGIN
170
     1
300
CONTENTFORMAT
  1
CONTENTFORMAT_BEGIN
 90
      264
 91
      256
 92
      512
 93
        0
300

 40
0.0
140
1.0
 94
        1
 62
     0
340
0
144
0.18
309
CONTENTFORMAT_END
309
FORMATTEDCELLCONTENT_END
309
LINKEDTABLEDATACELL_END
  1
FORMATTEDTABLEDATACELL_BEGIN
300
CELLTABLEFORMAT
  1
TABLEFORMAT_BEGIN
 90
        1
170
     1
 91
   408592
 92
        0
 62
   257
 93
        1
300
CONTENTFORMAT
  1
CONTENTFORMAT_BEGIN
 90
       16
 91
        0
 92
      512
 93
        0
300

 40
0.0
140
1.0
 94
        5
 62
     0
340
0
144
0.18
309
CONTENTFORMAT_END
171
     1
301
MARGIN
  1
CELLMARGIN_BEGIN
 40
1.875
 40
1.875
 40
1.875
 40
1.875
 40
1.875
 40
1.875
309
CELLMARGIN_END
 94
        0
309
TABLEFORMAT_END
309
FORMATTEDTABLEDATACELL_END
  1
TABLECELL_BEGIN
 90
        3
 91
        0
309
TABLECELL_END
300
CELL
  1
LINKEDTABLEDATACELL_BEGIN
 90
        0
300

 91
        0
301
CUSTOMDATA
  1
DATAMAP_BEGIN
 90
        0
309
DATAMAP_END
 92
        0
 95
        1
302
CONTENT
  1
CELLCONTENT_BEGIN
 90
        1
300
VALUE
 93
        0
 90
        4
  1

 94
        0
300

302

304
ACVALUE_END
 91
        0
309
CELLCONTENT_END
  1
FORMATTEDCELLCONTENT_BEGIN
170
     1
300
CONTENTFORMAT
  1
CONTENTFORMAT_BEGIN
 90
      129
 91
        0
 92
        4
 93
        0
300

 40
0.0
140
1.0
 94
        1
 62
     0
340
0
144
7.5
309
CONTENTFORMAT_END
309
FORMATTEDCELLCONTENT_END
309
LINKEDTABLEDATACELL_END
  1
FORMATTEDTABLEDATACELL_BEGIN
300
CELLTABLEFORMAT
  1
TABLEFORMAT_BEGIN
 90
        1
170
     1
 91
   408592
 92
        0
 62
   257
 93
        1
300
CONTENTFORMAT
  1
CONTENTFORMAT_BEGIN
 90
       16
 91
        0
 92
      512
 93
        0
300

 40
0.0
140
1.0
 94
        5
 62
     0
340
0
144
0.18
309
CONTENTFORMAT_END
171
     1
301
MARGIN
  1
CELLMARGIN_BEGIN
 40
1.875
 40
1.875
 40
1.875
 40
1.875
 40
1.875
 40
1.875
309
CELLMARGIN_END
 94
        0
309
TABLEFORMAT_END
309
FORMATTEDTABLEDATACELL_END
  1
TABLECELL_BEGIN
 90
        3
 91
        0
309
TABLECELL_END
300
CELL
  1
LINKEDTABLEDATACELL_BEGIN
 90
        0
300

 91
        0
301
CUSTOMDATA
  1
DATAMAP_BEGIN
 90
        0
309
DATAMAP_END
 92
        0
 95
        1
302
CONTENT
  1
CELLCONTENT_BEGIN
 90
        1
300
VALUE
 93
        0
 90
        4
  1

 94
        0
300

302

304
ACVALUE_END
 91
        0
309
CELLCONTENT_END
  1
FORMATTEDCELLCONTENT_BEGIN
170
     1
300
CONTENTFORMAT
  1
CONTENTFORMAT_BEGIN
 90
      129
 91
        0
 92
        4
 93
        0
300

 40
0.0
140
1.0
 94
        1
 62
     0
340
0
144
7.5
309
CONTENTFORMAT_END
309
FORMATTEDCELLCONTENT_END
309
LINKEDTABLEDATACELL_END
  1
FORMATTEDTABLEDATACELL_BEGIN
300
CELLTABLEFORMAT
  1
TABLEFORMAT_BEGIN
 90
        1
170
     1
 91
   408592
 92
        0
 62
   257
 93
        1
300
CONTENTFORMAT
  1
CONTENTFORMAT_BEGIN
 90
       16
 91
        0
 92
      512
 93
        0
300

 40
0.0
140
1.0
 94
        5
 62
     0
340
0
144
0.18
309
CONTENTFORMAT_END
171
     1
301
MARGIN
  1
CELLMARGIN_BEGIN
 40
1.875
 40
1.875
 40
1.875
 40
1.875
 40
1.875
 40
1.875
309
CELLMARGIN_END
 94
        0
309
TABLEFORMAT_END
309
FORMATTEDTABLEDATACELL_END
  1
TABLECELL_BEGIN
 90
        3
 91
        0
309
TABLECELL_END
300
CELL
  1
LINKEDTABLEDATACELL_BEGIN
 90
        0
300

 91
        0
301
CUSTOMDATA
  1
DATAMAP_BEGIN
 90
        0
309
DATAMAP_END
 92
        0
 95
        1
302
CONTENT
  1
CELLCONTENT_BEGIN
 90
        1
300
VALUE
 93
        0
 90
        4
  1

 94
        0
300

302

304
ACVALUE_END
 91
        0
309
CELLCONTENT_END
  1
FORMATTEDCELLCONTENT_BEGIN
170
     1
300
CONTENTFORMAT
  1
CONTENTFORMAT_BEGIN
 90
      129
 91
        0
 92
        4
 93
        0
300

 40
0.0
140
1.0
 94
        1
 62
     0
340
0
144
7.5
309
CONTENTFORMAT_END
309
FORMATTEDCELLCONTENT_END
309
LINKEDTABLEDATACELL_END
  1
FORMATTEDTABLEDATACELL_BEGIN
300
CELLTABLEFORMAT
  1
TABLEFORMAT_BEGIN
 90
        1
170
     1
 91
   408592
 92
        0
 62
   257
 93
        1
300
CONTENTFORMAT
  1
CONTENTFORMAT_BEGIN
 90
       16
 91
        0
 92
      512
 93
        0
300

 40
0.0
140
1.0
 94
        4
 62
     0
340
0
144
0.18
309
CONTENTFORMAT_END
171
     1
301
MARGIN
  1
CELLMARGIN_BEGIN
 40
1.875
 40
1.875
 40
1.875
 40
1.875
 40
1.875
 40
1.875
309
CELLMARGIN_END
 94
        0
309
TABLEFORMAT_END
309
FORMATTEDTABLEDATACELL_END
  1
TABLECELL_BEGIN
 90
        3
 91
        0
309
TABLECELL_END
 91
        0
301
CUSTOMDATA
  1
DATAMAP_BEGIN
 90
        0
309
DATAMAP_END
309
LINKEDTABLEDATAROW_END
  1
FORMATTEDTABLEDATAROW_BEGIN
300
ROWTABLEFORMAT
  1
TABLEFORMAT_BEGIN
 90
        2
170
     1
 91
      128
 92
        0
 62
   257
 93
        1
300
CONTENTFORMAT
  1
CONTENTFORMAT_BEGIN
 90
      128
 91
        0
 92
      512
 93
        0
300

 40
0.0
140
1.0
 94
        1
 62
     0
340
0
144
7.5
309
CONTENTFORMAT_END
171
     0
 94
        0
309
TABLEFORMAT_END
309
FORMATTEDTABLEDATAROW_END
  1
TABLEROW_BEGIN
 90
        3
 40
13.75
309
TABLEROW_END
301
ROW
  1
LINKEDTABLEDATAROW_BEGIN
 90
        4
300
CELL
  1
LINKEDTABLEDATACELL_BEGIN
 90
        0
300

 91
        0
301
CUSTOMDATA
  1
DATAMAP_BEGIN
 90
        0
309
DATAMAP_END
 92
        0
 95
        2
302
CONTENT
  1
CELLCONTENT_BEGIN
 90
        1
300
VALUE
 93
        0
 90
        4
  1

 94
        0
300

302

304
ACVALUE_END
 91
        0
309
CELLCONTENT_END
  1
FORMATTEDCELLCONTENT_BEGIN
170
     1
300
CONTENTFORMAT
  1
CONTENTFORMAT_BEGIN
 90
      129
 91
        0
 92
        4
 93
        0
300

 40
0.0
140
1.0
 94
        1
 62
     0
340
0
144
7.5
309
CONTENTFORMAT_END
309
FORMATTEDCELLCONTENT_END
302
CONTENT
  1
CELLCONTENT_BEGIN
 90
        4
340
16C3
 91
        0
309
CELLCONTENT_END
  1
FORMATTEDCELLCONTENT_BEGIN
170
     1
300
CONTENTFORMAT
  1
CONTENTFORMAT_BEGIN
 90
      264
 91
      256
 92
      512
 93
        0
300

 40
0.0
140
1.0
 94
        1
 62
     0
340
0
144
0.18
309
CONTENTFORMAT_END
309
FORMATTEDCELLCONTENT_END
309
LINKEDTABLEDATACELL_END
  1
FORMATTEDTABLEDATACELL_BEGIN
300
CELLTABLEFORMAT
  1
TABLEFORMAT_BEGIN
 90
        1
170
     1
 91
   408592
 92
        0
 62
   257
 93
        1
300
CONTENTFORMAT
  1
CONTENTFORMAT_BEGIN
 90
       16
 91
        0
 92
      512
 93
        0
300

 40
0.0
140
1.0
 94
        5
 62
     0
340
0
144
0.18
309
CONTENTFORMAT_END
171
     1
301
MARGIN
  1
CELLMARGIN_BEGIN
 40
1.875
 40
1.875
 40
1.875
 40
1.875
 40
1.875
 40
1.875
309
CELLMARGIN_END
 94
        0
309
TABLEFORMAT_END
309
FORMATTEDTABLEDATACELL_END
  1
TABLECELL_BEGIN
 90
        3
 91
        0
309
TABLECELL_END
300
CELL
  1
LINKEDTABLEDATACELL_BEGIN
 90
        0
300

 91
        0
301
CUSTOMDATA
  1
DATAMAP_BEGIN
 90
        0
309
DATAMAP_END
 92
        0
 95
        1
302
CONTENT
  1
CELLCONTENT_BEGIN
 90
        1
300
VALUE
 93
        0
 90
        4
  1

 94
        0
300

302

304
ACVALUE_END
 91
        0
309
CELLCONTENT_END
  1
FORMATTEDCELLCONTENT_BEGIN
170
     1
300
CONTENTFORMAT
  1
CONTENTFORMAT_BEGIN
 90
      129
 91
        0
 92
        4
 93
        0
300

 40
0.0
140
1.0
 94
        1
 62
     0
340
0
144
7.5
309
CONTENTFORMAT_END
309
FORMATTEDCELLCONTENT_END
309
LINKEDTABLEDATACELL_END
  1
FORMATTEDTABLEDATACELL_BEGIN
300
CELLTABLEFORMAT
  1
TABLEFORMAT_BEGIN
 90
        1
170
     1
 91
   408592
 92
        0
 62
   257
 93
        1
300
CONTENTFORMAT
  1
CONTENTFORMAT_BEGIN
 90
       16
 91
        0
 92
      512
 93
        0
300

 40
0.0
140
1.0
 94
        5
 62
     0
340
0
144
0.18
309
CONTENTFORMAT_END
171
     1
301
MARGIN
  1
CELLMARGIN_BEGIN
 40
1.875
 40
1.875
 40
1.875
 40
1.875
 40
1.875
 40
1.875
309
CELLMARGIN_END
 94
        0
309
TABLEFORMAT_END
309
FORMATTEDTABLEDATACELL_END
  1
TABLECELL_BEGIN
 90
        3
 91
        0
309
TABLECELL_END
300
CELL
  1
LINKEDTABLEDATACELL_BEGIN
 90
        0
300

 91
        0
301
CUSTOMDATA
  1
DATAMAP_BEGIN
 90
        0
309
DATAMAP_END
 92
        0
 95
        1
302
CONTENT
  1
CELLCONTENT_BEGIN
 90
        1
300
VALUE
 93
        0
 90
        4
  1

 94
        0
300

302

304
ACVALUE_END
 91
        0
309
CELLCONTENT_END
  1
FORMATTEDCELLCONTENT_BEGIN
170
     1
300
CONTENTFORMAT
  1
CONTENTFORMAT_BEGIN
 90
      129
 91
        0
 92
        4
 93
        0
300

 40
0.0
140
1.0
 94
        1
 62
     0
340
0
144
7.5
309
CONTENTFORMAT_END
309
FORMATTEDCELLCONTENT_END
309
LINKEDTABLEDATACELL_END
  1
FORMATTEDTABLEDATACELL_BEGIN
300
CELLTABLEFORMAT
  1
TABLEFORMAT_BEGIN
 90
        1
170
     1
 91
   408592
 92
        0
 62
   257
 93
        1
300
CONTENTFORMAT
  1
CONTENTFORMAT_BEGIN
 90
       16
 91
        0
 92
      512
 93
        0
300

 40
0.0
140
1.0
 94
        5
 62
     0
340
0
144
0.18
309
CONTENTFORMAT_END
171
     1
301
MARGIN
  1
CELLMARGIN_BEGIN
 40
1.875
 40
1.875
 40
1.875
 40
1.875
 40
1.875
 40
1.875
309
CELLMARGIN_END
 94
        0
309
TABLEFORMAT_END
309
FORMATTEDTABLEDATACELL_END
  1
TABLECELL_BEGIN
 90
        3
 91
        0
309
TABLECELL_END
300
CELL
  1
LINKEDTABLEDATACELL_BEGIN
 90
        0
300

 91
        0
301
CUSTOMDATA
  1
DATAMAP_BEGIN
 90
        0
309
DATAMAP_END
 92
        0
 95
        1
302
CONTENT
  1
CELLCONTENT_BEGIN
 90
        1
300
VALUE
 93
        0
 90
        4
  1

 94
        0
300

302

304
ACVALUE_END
 91
        0
309
CELLCONTENT_END
  1
FORMATTEDCELLCONTENT_BEGIN
170
     1
300
CONTENTFORMAT
  1
CONTENTFORMAT_BEGIN
 90
      129
 91
        0
 92
        4
 93
        0
300

 40
0.0
140
1.0
 94
        1
 62
     0
340
0
144
7.5
309
CONTENTFORMAT_END
309
FORMATTEDCELLCONTENT_END
309
LINKEDTABLEDATACELL_END
  1
FORMATTEDTABLEDATACELL_BEGIN
300
CELLTABLEFORMAT
  1
TABLEFORMAT_BEGIN
 90
        1
170
     1
 91
   408592
 92
        0
 62
   257
 93
        1
300
CONTENTFORMAT
  1
CONTENTFORMAT_BEGIN
 90
       16
 91
        0
 92
      512
 93
        0
300

 40
0.0
140
1.0
 94
        4
 62
     0
340
0
144
0.18
309
CONTENTFORMAT_END
171
     1
301
MARGIN
  1
CELLMARGIN_BEGIN
 40
1.875
 40
1.875
 40
1.875
 40
1.875
 40
1.875
 40
1.875
309
CELLMARGIN_END
 94
        0
309
TABLEFORMAT_END
309
FORMATTEDTABLEDATACELL_END
  1
TABLECELL_BEGIN
 90
        3
 91
        0
309
TABLECELL_END
 91
        0
301
CUSTOMDATA
  1
DATAMAP_BEGIN
 90
        0
309
DATAMAP_END
309
LINKEDTABLEDATAROW_END
  1
FORMATTEDTABLEDATAROW_BEGIN
300
ROWTABLEFORMAT
  1
TABLEFORMAT_BEGIN
 90
        2
170
     1
 91
      128
 92
        0
 62
   257
 93
        1
300
CONTENTFORMAT
  1
CONTENTFORMAT_BEGIN
 90
      128
 91
        0
 92
      512
 93
        0
300

 40
0.0
140
1.0
 94
        1
 62
     0
340
0
144
7.5
309
CONTENTFORMAT_END
171
     0
 94
        0
309
TABLEFORMAT_END
309
FORMATTEDTABLEDATAROW_END
  1
TABLEROW_BEGIN
 90
        3
 40
13.75
309
TABLEROW_END
301
ROW
  1
LINKEDTABLEDATAROW_BEGIN
 90
        4
300
CELL
  1
LINKEDTABLEDATACELL_BEGIN
 90
        0
300

 91
        0
301
CUSTOMDATA
  1
DATAMAP_BEGIN
 90
        0
309
DATAMAP_END
 92
        0
 95
        2
302
CONTENT
  1
CELLCONTENT_BEGIN
 90
        1
300
VALUE
 93
        0
 90
        4
  1

 94
        0
300

302

304
ACVALUE_END
 91
        0
309
CELLCONTENT_END
  1
FORMATTEDCELLCONTENT_BEGIN
170
     1
300
CONTENTFORMAT
  1
CONTENTFORMAT_BEGIN
 90
      129
 91
        0
 92
        4
 93
        0
300

 40
0.0
140
1.0
 94
        1
 62
     0
340
0
144
7.5
309
CONTENTFORMAT_END
309
FORMATTEDCELLCONTENT_END
302
CONTENT
  1
CELLCONTENT_BEGIN
 90
        4
340
16CF
 91
        0
309
CELLCONTENT_END
  1
FORMATTEDCELLCONTENT_BEGIN
170
     1
300
CONTENTFORMAT
  1
CONTENTFORMAT_BEGIN
 90
      264
 91
      256
 92
      512
 93
        0
300

 40
0.0
140
1.0
 94
        1
 62
     0
340
0
144
0.18
309
CONTENTFORMAT_END
309
FORMATTEDCELLCONTENT_END
309
LINKEDTABLEDATACELL_END
  1
FORMATTEDTABLEDATACELL_BEGIN
300
CELLTABLEFORMAT
  1
TABLEFORMAT_BEGIN
 90
        1
170
     1
 91
   408592
 92
        0
 62
   257
 93
        1
300
CONTENTFORMAT
  1
CONTENTFORMAT_BEGIN
 90
       16
 91
        0
 92
      512
 93
        0
300

 40
0.0
140
1.0
 94
        5
 62
     0
340
0
144
0.18
309
CONTENTFORMAT_END
171
     1
301
MARGIN
  1
CELLMARGIN_BEGIN
 40
1.875
 40
1.875
 40
1.875
 40
1.875
 40
1.875
 40
1.875
309
CELLMARGIN_END
 94
        0
309
TABLEFORMAT_END
309
FORMATTEDTABLEDATACELL_END
  1
TABLECELL_BEGIN
 90
        3
 91
        0
309
TABLECELL_END
300
CELL
  1
LINKEDTABLEDATACELL_BEGIN
 90
        0
300

 91
        0
301
CUSTOMDATA
  1
DATAMAP_BEGIN
 90
        0
309
DATAMAP_END
 92
        0
 95
        1
302
CONTENT
  1
CELLCONTENT_BEGIN
 90
        1
300
VALUE
 93
        0
 90
        4
  1

 94
        0
300

302

304
ACVALUE_END
 91
        0
309
CELLCONTENT_END
  1
FORMATTEDCELLCONTENT_BEGIN
170
     1
300
CONTENTFORMAT
  1
CONTENTFORMAT_BEGIN
 90
      129
 91
        0
 92
        4
 93
        0
300

 40
0.0
140
1.0
 94
        1
 62
     0
340
0
144
7.5
309
CONTENTFORMAT_END
309
FORMATTEDCELLCONTENT_END
309
LINKEDTABLEDATACELL_END
  1
FORMATTEDTABLEDATACELL_BEGIN
300
CELLTABLEFORMAT
  1
TABLEFORMAT_BEGIN
 90
        1
170
     1
 91
   408592
 92
        0
 62
   257
 93
        1
300
CONTENTFORMAT
  1
CONTENTFORMAT_BEGIN
 90
       16
 91
        0
 92
      512
 93
        0
300

 40
0.0
140
1.0
 94
        5
 62
     0
340
0
144
0.18
309
CONTENTFORMAT_END
171
     1
301
MARGIN
  1
CELLMARGIN_BEGIN
 40
1.875
 40
1.875
 40
1.875
 40
1.875
 40
1.875
 40
1.875
309
CELLMARGIN_END
 94
        0
309
TABLEFORMAT_END
309
FORMATTEDTABLEDATACELL_END
  1
TABLECELL_BEGIN
 90
        3
 91
        0
309
TABLECELL_END
300
CELL
  1
LINKEDTABLEDATACELL_BEGIN
 90
        0
300

 91
        0
301
CUSTOMDATA
  1
DATAMAP_BEGIN
 90
        0
309
DATAMAP_END
 92
        0
 95
        1
302
CONTENT
  1
CELLCONTENT_BEGIN
 90
        1
300
VALUE
 93
        0
 90
        4
  1

 94
        0
300

302

304
ACVALUE_END
 91
        0
309
CELLCONTENT_END
  1
FORMATTEDCELLCONTENT_BEGIN
170
     1
300
CONTENTFORMAT
  1
CONTENTFORMAT_BEGIN
 90
      129
 91
        0
 92
        4
 93
        0
300

 40
0.0
140
1.0
 94
        1
 62
     0
340
0
144
7.5
309
CONTENTFORMAT_END
309
FORMATTEDCELLCONTENT_END
309
LINKEDTABLEDATACELL_END
  1
FORMATTEDTABLEDATACELL_BEGIN
300
CELLTABLEFORMAT
  1
TABLEFORMAT_BEGIN
 90
        1
170
     1
 91
   408592
 92
        0
 62
   257
 93
        1
300
CONTENTFORMAT
  1
CONTENTFORMAT_BEGIN
 90
       16
 91
        0
 92
      512
 93
        0
300

 40
0.0
140
1.0
 94
        5
 62
     0
340
0
144
0.18
309
CONTENTFORMAT_END
171
     1
301
MARGIN
  1
CELLMARGIN_BEGIN
 40
1.875
 40
1.875
 40
1.875
 40
1.875
 40
1.875
 40
1.875
309
CELLMARGIN_END
 94
        0
309
TABLEFORMAT_END
309
FORMATTEDTABLEDATACELL_END
  1
TABLECELL_BEGIN
 90
        3
 91
        0
309
TABLECELL_END
300
CELL
  1
LINKEDTABLEDATACELL_BEGIN
 90
        0
300

 91
        0
301
CUSTOMDATA
  1
DATAMAP_BEGIN
 90
        0
309
DATAMAP_END
 92
        0
 95
        1
302
CONTENT
  1
CELLCONTENT_BEGIN
 90
        1
300
VALUE
 93
        0
 90
        4
  1

 94
        0
300

302

304
ACVALUE_END
 91
        0
309
CELLCONTENT_END
  1
FORMATTEDCELLCONTENT_BEGIN
170
     1
300
CONTENTFORMAT
  1
CONTENTFORMAT_BEGIN
 90
      129
 91
        0
 92
        4
 93
        0
300

 40
0.0
140
1.0
 94
        1
 62
     0
340
0
144
7.5
309
CONTENTFORMAT_END
309
FORMATTEDCELLCONTENT_END
309
LINKEDTABLEDATACELL_END
  1
FORMATTEDTABLEDATACELL_BEGIN
300
CELLTABLEFORMAT
  1
TABLEFORMAT_BEGIN
 90
        1
170
     1
 91
   408592
 92
        0
 62
   257
 93
        1
300
CONTENTFORMAT
  1
CONTENTFORMAT_BEGIN
 90
       16
 91
        0
 92
      512
 93
        0
300

 40
0.0
140
1.0
 94
        4
 62
     0
340
0
144
0.18
309
CONTENTFORMAT_END
171
     1
301
MARGIN
  1
CELLMARGIN_BEGIN
 40
1.875
 40
1.875
 40
1.875
 40
1.875
 40
1.875
 40
1.875
309
CELLMARGIN_END
 94
        0
309
TABLEFORMAT_END
309
FORMATTEDTABLEDATACELL_END
  1
TABLECELL_BEGIN
 90
        3
 91
        0
309
TABLECELL_END
 91
        0
301
CUSTOMDATA
  1
DATAMAP_BEGIN
 90
        0
309
DATAMAP_END
309
LINKEDTABLEDATAROW_END
  1
FORMATTEDTABLEDATAROW_BEGIN
300
ROWTABLEFORMAT
  1
TABLEFORMAT_BEGIN
 90
        2
170
     1
 91
      128
 92
        0
 62
   257
 93
        1
300
CONTENTFORMAT
  1
CONTENTFORMAT_BEGIN
 90
      128
 91
        0
 92
      512
 93
        0
300

 40
0.0
140
1.0
 94
        1
 62
     0
340
0
144
7.5
309
CONTENTFORMAT_END
171
     0
 94
        0
309
TABLEFORMAT_END
309
FORMATTEDTABLEDATAROW_END
  1
TABLEROW_BEGIN
 90
        3
 40
13.75
309
TABLEROW_END
 92
        0
100
AcDbFormattedTableData
300
TABLEFORMAT
  1
TABLEFORMAT_BEGIN
 90
        4
170
     1
 91
   408576
 92
    65536
 62
   257
 93
        1
300
CONTENTFORMAT
  1
CONTENTFORMAT_BEGIN
 90
        0
 91
        0
 92
      512
 93
        0
300

 40
0.0
140
1.0
 94
        1
 62
     0
340
0
144
0.18
309
CONTENTFORMAT_END
171
     1
301
MARGIN
  1
CELLMARGIN_BEGIN
 40
1.875
 40
1.875
 40
1.875
 40
1.875
 40
0.075
 40
0.075
309
CELLMARGIN_END
 94
        0
309
TABLEFORMAT_END
 90
        0
100
AcDbTableContent
340
1660
  0
TABLEGEOMETRY
  5
1C54
330
1C56
100
AcDbTableGeometry
 90
        5
 91
        4
 92
       20
 93
        0
 40
0.0
 41
0.0
330
0
 94
        0
 93
        0
 40
0.0
 41
0.0
330
0
 94
        0
 93
        0
 40
0.0
 41
0.0
330
0
 94
        0
 93
        0
 40
0.0
 41
0.0
330
0
 94
        0
 93
        0
 40
0.0
 41
0.0
330
0
 94
        0
 93
        0
 40
0.0
 41
0.0
330
0
 94
        0
 93
        0
 40
0.0
 41
0.0
330
0
 94
        0
 93
        0
 40
0.0
 41
0.0
330
0
 94
        0
 93
        0
 40
0.0
 41
0.0
330
0
 94
        0
 93
        0
 40
0.0
 41
0.0
330
0
 94
        0
 93
        0
 40
0.0
 41
0.0
330
0
 94
        0
 93
        0
 40
0.0
 41
0.0
330
0
 94
        0
 93
        0
 40
0.0
 41
0.0
330
0
 94
        0
 93
        0
 40
0.0
 41
0.0
330
0
 94
        0
 93
        0
 40
0.0
 41
0.0
330
0
 94
        0
 93
        0
 40
0.0
 41
0.0
330
0
 94
        0
 93
        0
 40
0.0
 41
0.0
330
0
 94
        0
 93
        0
 40
0.0
 41
0.0
330
0
 94
        0
 93
        0
 40
0.0
 41
0.0
330
0
 94
        0
 93
        0
 40
0.0
 41
0.0
330
0
 94
        0
  0
DICTIONARY
  5
1967
102
{ACAD_REACTORS
330
1966
102
}
330
1966
100
AcDbDictionary
281
     1
  0
DICTIONARY
  5
196B
102
{ACAD_REACTORS
330
196A
102
}
330
196A
100
AcDbDictionary
281
     1
  0
DICTIONARY
  5
196F
102
{ACAD_REACTORS
330
196E
102
}
330
196E
100
AcDbDictionary
281
     1
  0
DICTIONARY
  5
1973
102
{ACAD_REACTORS
330
1972
102
}
330
1972
100
AcDbDictionary
281
     1
  0
DICTIONARY
  5
1977
102
{ACAD_REACTORS
330
1976
102
}
330
1976
100
AcDbDictionary
281
     1
  0
DICTIONARY
  5
197B
102
{ACAD_REACTORS
330
197A
102
}
330
197A
100
AcDbDictionary
281
     1
  0
DICTIONARY
  5
1980
102
{ACAD_REACTORS
330
197F
102
}
330
197F
100
AcDbDictionary
281
     1
  0
DICTIONARY
  5
1984
102
{ACAD_REACTORS
330
1983
102
}
330
1983
100
AcDbDictionary
281
     1
  0
DICTIONARY
  5
1988
102
{ACAD_REACTORS
330
1987
102
}
330
1987
100
AcDbDictionary
281
     1
  0
DICTIONARY
  5
199F
102
{ACAD_REACTORS
330
199E
102
}
330
199E
100
AcDbDictionary
281
     1
  0
DICTIONARY
  5
1C8B
330
1660
100
AcDbDictionary
280
     1
281
     1
  3
ACAD_ROUNDTRIP_2008_TABLESTYLE_CELLSTYLEMAP
360
1C8C
  0
DICTIONARY
  5
1C89
330
15E9
100
AcDbDictionary
280
     1
281
     1
  3
ACAD_ROUNDTRIP_2008_TABLESTYLE_CELLSTYLEMAP
360
1C8A
  0
DICTIONARY
  5
1C5F
330
15D0
100
AcDbDictionary
280
     1
281
     1
  3
ACAD_XREC_ROUNDTRIP
360
1C60
  0
DICTIONARY
  5
1C65
330
15D3
100
AcDbDictionary
280
     1
281
     1
  3
ACAD_XREC_ROUNDTRIP
360
1C66
  0
DICTIONARY
  5
1C6D
330
15D7
100
AcDbDictionary
280
     1
281
     1
  3
ACAD_XREC_ROUNDTRIP
360
1C6E
  0
DICTIONARY
  5
1C75
330
15DB
100
AcDbDictionary
280
     1
281
     1
  3
ACAD_XREC_ROUNDTRIP
360
1C76
  0
DICTIONARY
  5
1C69
330
15D5
100
AcDbDictionary
280
     1
281
     1
  3
ACAD_XREC_ROUNDTRIP
360
1C6A
  0
DICTIONARY
  5
1C6B
330
15D6
100
AcDbDictionary
280
     1
281
     1
  3
ACAD_XREC_ROUNDTRIP
360
1C6C
  0
DICTIONARY
  5
1C7B
330
15DE
100
AcDbDictionary
280
     1
281
     1
  3
ACAD_XREC_ROUNDTRIP
360
1C7C
  0
DICTIONARY
  5
1C73
330
15DA
100
AcDbDictionary
280
     1
281
     1
  3
ACAD_XREC_ROUNDTRIP
360
1C74
  0
DICTIONARY
  5
1C57
330
15CC
100
AcDbDictionary
280
     1
281
     1
  3
ACAD_XREC_ROUNDTRIP
360
1C58
  0
DICTIONARY
  5
1C59
330
15CD
100
AcDbDictionary
280
     1
281
     1
  3
ACAD_XREC_ROUNDTRIP
360
1C5A
  0
DICTIONARY
  5
1C5B
330
15CE
100
AcDbDictionary
280
     1
281
     1
  3
ACAD_XREC_ROUNDTRIP
360
1C5C
  0
DICTIONARY
  5
1C5D
330
15CF
100
AcDbDictionary
280
     1
281
     1
  3
ACAD_XREC_ROUNDTRIP
360
1C5E
  0
DICTIONARY
  5
1C63
330
15D2
100
AcDbDictionary
280
     1
281
     1
  3
ACAD_XREC_ROUNDTRIP
360
1C64
  0
DICTIONARY
  5
1C77
330
15DC
100
AcDbDictionary
280
     1
281
     1
  3
ACAD_XREC_ROUNDTRIP
360
1C78
  0
DICTIONARY
  5
1C71
330
15D9
100
AcDbDictionary
280
     1
281
     1
  3
ACAD_XREC_ROUNDTRIP
360
1C72
  0
DICTIONARY
  5
1C87
330
15EC
100
AcDbDictionary
280
     1
281
     1
  3
ACAD_XREC_ROUNDTRIP
360
1C88
  0
DICTIONARY
  5
1C79
330
15DD
100
AcDbDictionary
280
     1
281
     1
  3
ACAD_XREC_ROUNDTRIP
360
1C7A
  0
DICTIONARY
  5
1C67
330
15D4
100
AcDbDictionary
280
     1
281
     1
  3
ACAD_XREC_ROUNDTRIP
360
1C68
  0
DICTIONARY
  5
1C85
330
15E3
100
AcDbDictionary
280
     1
281
     1
  3
ACAD_XREC_ROUNDTRIP
360
1C86
  0
DICTIONARY
  5
1C83
330
15E2
100
AcDbDictionary
280
     1
281
     1
  3
ACAD_XREC_ROUNDTRIP
360
1C84
  0
DICTIONARY
  5
1C7D
330
15DF
100
AcDbDictionary
280
     1
281
     1
  3
ACAD_XREC_ROUNDTRIP
360
1C7E
  0
DICTIONARY
  5
1C7F
330
15E0
100
AcDbDictionary
280
     1
281
     1
  3
ACAD_XREC_ROUNDTRIP
360
1C80
  0
DICTIONARY
  5
1C6F
330
15D8
100
AcDbDictionary
280
     1
281
     1
  3
ACAD_XREC_ROUNDTRIP
360
1C70
  0
DICTIONARY
  5
1C61
330
15D1
100
AcDbDictionary
280
     1
281
     1
  3
ACAD_XREC_ROUNDTRIP
360
1C62
  0
DICTIONARY
  5
1C81
330
15E1
100
AcDbDictionary
280
     1
281
     1
  3
ACAD_XREC_ROUNDTRIP
360
1C82
  0
CELLSTYLEMAP
  5
1C8C
102
{ACAD_REACTORS
330
1C8B
102
}
330
1C8B
100
AcDbCellStyleMap
 90
        3
300
CELLSTYLE
  1
TABLEFORMAT_BEGIN
 90
        5
170
     1
 91
        0
 92
    32768
 62
   257
 93
        1
300
CONTENTFORMAT
  1
CONTENTFORMAT_BEGIN
 90
        0
 91
        0
 92
        4
 93
        0
300

 40
0.0
140
1.0
 94
        5
 62
     0
340
165B
144
1.0
309
CONTENTFORMAT_END
171
     1
301
MARGIN
  1
CELLMARGIN_BEGIN
 40
1.5
 40
1.5
 40
1.5
 40
1.5
 40
1.5
 40
1.5
309
CELLMARGIN_END
 94
        6
 95
        1
302
GRIDFORMAT
  1
GRIDFORMAT_BEGIN
 90
        0
 91
        1
 62
     0
 92
       -2
340
11
 93
        0
 40
0.045
309
GRIDFORMAT_END
 95
        2
302
GRIDFORMAT
  1
GRIDFORMAT_BEGIN
 90
        0
 91
        1
 62
     0
 92
       -2
340
11
 93
        0
 40
0.045
309
GRIDFORMAT_END
 95
        4
302
GRIDFORMAT
  1
GRIDFORMAT_BEGIN
 90
        0
 91
        1
 62
     0
 92
       -2
340
11
 93
        0
 40
0.045
309
GRIDFORMAT_END
 95
        8
302
GRIDFORMAT
  1
GRIDFORMAT_BEGIN
 90
        0
 91
        1
 62
     0
 92
       -2
340
11
 93
        0
 40
0.045
309
GRIDFORMAT_END
 95
       16
302
GRIDFORMAT
  1
GRIDFORMAT_BEGIN
 90
        0
 91
        1
 62
     0
 92
       -2
340
11
 93
        0
 40
0.045
309
GRIDFORMAT_END
 95
       32
302
GRIDFORMAT
  1
GRIDFORMAT_BEGIN
 90
        0
 91
        1
 62
     0
 92
       -2
340
11
 93
        0
 40
0.045
309
GRIDFORMAT_END
309
TABLEFORMAT_END
  1
CELLSTYLE_BEGIN
 90
        1
 91
        1
300
_TITLE
309
CELLSTYLE_END
300
CELLSTYLE
  1
TABLEFORMAT_BEGIN
 90
        5
170
     1
 91
        0
 92
        0
 62
   257
 93
        1
300
CONTENTFORMAT
  1
CONTENTFORMAT_BEGIN
 90
        0
 91
        0
 92
        4
 93
        0
300

 40
0.0
140
1.0
 94
        5
 62
     0
340
165B
144
6.0
309
CONTENTFORMAT_END
171
     1
301
MARGIN
  1
CELLMARGIN_BEGIN
 40
1.5
 40
1.5
 40
1.5
 40
1.5
 40
1.5
 40
1.5
309
CELLMARGIN_END
 94
        6
 95
        1
302
GRIDFORMAT
  1
GRIDFORMAT_BEGIN
 90
        0
 91
        1
 62
     0
 92
       -2
340
11
 93
        0
 40
0.045
309
GRIDFORMAT_END
 95
        2
302
GRIDFORMAT
  1
GRIDFORMAT_BEGIN
 90
        0
 91
        1
 62
     0
 92
       -2
340
11
 93
        0
 40
0.045
309
GRIDFORMAT_END
 95
        4
302
GRIDFORMAT
  1
GRIDFORMAT_BEGIN
 90
        0
 91
        1
 62
     0
 92
       -2
340
11
 93
        0
 40
0.045
309
GRIDFORMAT_END
 95
        8
302
GRIDFORMAT
  1
GRIDFORMAT_BEGIN
 90
        0
 91
        1
 62
     0
 92
       -2
340
11
 93
        0
 40
0.045
309
GRIDFORMAT_END
 95
       16
302
GRIDFORMAT
  1
GRIDFORMAT_BEGIN
 90
        0
 91
        1
 62
     0
 92
       -2
340
11
 93
        0
 40
0.045
309
GRIDFORMAT_END
 95
       32
302
GRIDFORMAT
  1
GRIDFORMAT_BEGIN
 90
        0
 91
        1
 62
     0
 92
       -2
340
11
 93
        0
 40
0.045
309
GRIDFORMAT_END
309
TABLEFORMAT_END
  1
CELLSTYLE_BEGIN
 90
        2
 91
        1
300
_HEADER
309
CELLSTYLE_END
300
CELLSTYLE
  1
TABLEFORMAT_BEGIN
 90
        5
170
     1
 91
        0
 92
        0
 62
   257
 93
        1
300
CONTENTFORMAT
  1
CONTENTFORMAT_BEGIN
 90
        0
 91
        0
 92
        4
 93
        0
300

 40
0.0
140
1.0
 94
        2
 62
     0
340
165B
144
6.0
309
CONTENTFORMAT_END
171
     1
301
MARGIN
  1
CELLMARGIN_BEGIN
 40
1.5
 40
1.5
 40
1.5
 40
1.5
 40
1.5
 40
1.5
309
CELLMARGIN_END
 94
        6
 95
        1
302
GRIDFORMAT
  1
GRIDFORMAT_BEGIN
 90
        0
 91
        1
 62
     0
 92
       -2
340
11
 93
        0
 40
0.045
309
GRIDFORMAT_END
 95
        2
302
GRIDFORMAT
  1
GRIDFORMAT_BEGIN
 90
        0
 91
        1
 62
     0
 92
       -2
340
11
 93
        0
 40
0.045
309
GRIDFORMAT_END
 95
        4
302
GRIDFORMAT
  1
GRIDFORMAT_BEGIN
 90
        0
 91
        1
 62
     0
 92
       -2
340
11
 93
        0
 40
0.045
309
GRIDFORMAT_END
 95
        8
302
GRIDFORMAT
  1
GRIDFORMAT_BEGIN
 90
        0
 91
        1
 62
     0
 92
       -2
340
11
 93
        0
 40
0.045
309
GRIDFORMAT_END
 95
       16
302
GRIDFORMAT
  1
GRIDFORMAT_BEGIN
 90
        0
 91
        1
 62
     0
 92
       -2
340
11
 93
        0
 40
0.045
309
GRIDFORMAT_END
 95
       32
302
GRIDFORMAT
  1
GRIDFORMAT_BEGIN
 90
        0
 91
        1
 62
     0
 92
       -2
340
11
 93
        0
 40
0.045
309
GRIDFORMAT_END
309
TABLEFORMAT_END
  1
CELLSTYLE_BEGIN
 90
        3
 91
        2
300
_DATA
309
CELLSTYLE_END
  0
CELLSTYLEMAP
  5
1C8A
102
{ACAD_REACTORS
330
1C89
102
}
330
1C89
100
AcDbCellStyleMap
 90
        3
300
CELLSTYLE
  1
TABLEFORMAT_BEGIN
 90
        5
170
     1
 91
        0
 92
    32768
 62
   257
 93
        1
300
CONTENTFORMAT
  1
CONTENTFORMAT_BEGIN
 90
        0
 91
        0
 92
        4
 93
        0
300

 40
0.0
140
1.0
 94
        5
 62
     0
340
17
144
0.25
309
CONTENTFORMAT_END
171
     1
301
MARGIN
  1
CELLMARGIN_BEGIN
 40
0.06
 40
0.06
 40
0.06
 40
0.06
 40
0.06
 40
0.06
309
CELLMARGIN_END
 94
        6
 95
        1
302
GRIDFORMAT
  1
GRIDFORMAT_BEGIN
 90
        0
 91
        1
 62
     0
 92
       -2
340
11
 93
        0
 40
0.045
309
GRIDFORMAT_END
 95
        2
302
GRIDFORMAT
  1
GRIDFORMAT_BEGIN
 90
        0
 91
        1
 62
     0
 92
       -2
340
11
 93
        0
 40
0.045
309
GRIDFORMAT_END
 95
        4
302
GRIDFORMAT
  1
GRIDFORMAT_BEGIN
 90
        0
 91
        1
 62
     0
 92
       -2
340
11
 93
        0
 40
0.045
309
GRIDFORMAT_END
 95
        8
302
GRIDFORMAT
  1
GRIDFORMAT_BEGIN
 90
        0
 91
        1
 62
     0
 92
       -2
340
11
 93
        0
 40
0.045
309
GRIDFORMAT_END
 95
       16
302
GRIDFORMAT
  1
GRIDFORMAT_BEGIN
 90
        0
 91
        1
 62
     0
 92
       -2
340
11
 93
        0
 40
0.045
309
GRIDFORMAT_END
 95
       32
302
GRIDFORMAT
  1
GRIDFORMAT_BEGIN
 90
        0
 91
        1
 62
     0
 92
       -2
340
11
 93
        0
 40
0.045
309
GRIDFORMAT_END
309
TABLEFORMAT_END
  1
CELLSTYLE_BEGIN
 90
        1
 91
        1
300
_TITLE
309
CELLSTYLE_END
300
CELLSTYLE
  1
TABLEFORMAT_BEGIN
 90
        5
170
     1
 91
        0
 92
        0
 62
   257
 93
        1
300
CONTENTFORMAT
  1
CONTENTFORMAT_BEGIN
 90
        0
 91
        0
 92
        4
 93
        0
300

 40
0.0
140
1.0
 94
        5
 62
     0
340
17
144
0.18
309
CONTENTFORMAT_END
171
     1
301
MARGIN
  1
CELLMARGIN_BEGIN
 40
0.06
 40
0.06
 40
0.06
 40
0.06
 40
0.06
 40
0.06
309
CELLMARGIN_END
 94
        6
 95
        1
302
GRIDFORMAT
  1
GRIDFORMAT_BEGIN
 90
        0
 91
        1
 62
     0
 92
       -2
340
11
 93
        0
 40
0.045
309
GRIDFORMAT_END
 95
        2
302
GRIDFORMAT
  1
GRIDFORMAT_BEGIN
 90
        0
 91
        1
 62
     0
 92
       -2
340
11
 93
        0
 40
0.045
309
GRIDFORMAT_END
 95
        4
302
GRIDFORMAT
  1
GRIDFORMAT_BEGIN
 90
        0
 91
        1
 62
     0
 92
       -2
340
11
 93
        0
 40
0.045
309
GRIDFORMAT_END
 95
        8
302
GRIDFORMAT
  1
GRIDFORMAT_BEGIN
 90
        0
 91
        1
 62
     0
 92
       -2
340
11
 93
        0
 40
0.045
309
GRIDFORMAT_END
 95
       16
302
GRIDFORMAT
  1
GRIDFORMAT_BEGIN
 90
        0
 91
        1
 62
     0
 92
       -2
340
11
 93
        0
 40
0.045
309
GRIDFORMAT_END
 95
       32
302
GRIDFORMAT
  1
GRIDFORMAT_BEGIN
 90
        0
 91
        1
 62
     0
 92
       -2
340
11
 93
        0
 40
0.045
309
GRIDFORMAT_END
309
TABLEFORMAT_END
  1
CELLSTYLE_BEGIN
 90
        2
 91
        1
300
_HEADER
309
CELLSTYLE_END
300
CELLSTYLE
  1
TABLEFORMAT_BEGIN
 90
        5
170
     1
 91
        0
 92
        0
 62
   257
 93
        1
300
CONTENTFORMAT
  1
CONTENTFORMAT_BEGIN
 90
        0
 91
        0
 92
        4
 93
        0
300

 40
0.0
140
1.0
 94
        2
 62
     0
340
17
144
0.18
309
CONTENTFORMAT_END
171
     1
301
MARGIN
  1
CELLMARGIN_BEGIN
 40
0.06
 40
0.06
 40
0.06
 40
0.06
 40
0.06
 40
0.06
309
CELLMARGIN_END
 94
        6
 95
        1
302
GRIDFORMAT
  1
GRIDFORMAT_BEGIN
 90
        0
 91
        1
 62
     0
 92
       -2
340
11
 93
        0
 40
0.045
309
GRIDFORMAT_END
 95
        2
302
GRIDFORMAT
  1
GRIDFORMAT_BEGIN
 90
        0
 91
        1
 62
     0
 92
       -2
340
11
 93
        0
 40
0.045
309
GRIDFORMAT_END
 95
        4
302
GRIDFORMAT
  1
GRIDFORMAT_BEGIN
 90
        0
 91
        1
 62
     0
 92
       -2
340
11
 93
        0
 40
0.045
309
GRIDFORMAT_END
 95
        8
302
GRIDFORMAT
  1
GRIDFORMAT_BEGIN
 90
        0
 91
        1
 62
     0
 92
       -2
340
11
 93
        0
 40
0.045
309
GRIDFORMAT_END
 95
       16
302
GRIDFORMAT
  1
GRIDFORMAT_BEGIN
 90
        0
 91
        1
 62
     0
 92
       -2
340
11
 93
        0
 40
0.045
309
GRIDFORMAT_END
 95
       32
302
GRIDFORMAT
  1
GRIDFORMAT_BEGIN
 90
        0
 91
        1
 62
     0
 92
       -2
340
11
 93
        0
 40
0.045
309
GRIDFORMAT_END
309
TABLEFORMAT_END
  1
CELLSTYLE_BEGIN
 90
        3
 91
        2
300
_DATA
309
CELLSTYLE_END
  0
XRECORD
  5
1C60
102
{ACAD_REACTORS
330
1C5F
102
}
330
1C5F
100
AcDbXrecord
280
     1
102
RTVSPost2010Prop28
280
     1
102
RTVSPost2010PropOp28
 70
     1
102
RTVSPost2010Prop29
280
     1
102
RTVSPost2010PropOp29
 70
     1
102
RTVSPost2010Prop30
280
     0
102
RTVSPost2010PropOp30
 70
     1
102
RTVSPost2010Prop31
280
     0
102
RTVSPost2010PropOp31
 70
     1
102
RTVSPost2010Prop32
280
     0
102
RTVSPost2010PropOp32
 70
     1
102
RTVSPost2010Prop33
280
     0
102
RTVSPost2010PropOp33
 70
     1
102
RTVSPost2010Prop34
280
     0
102
RTVSPost2010PropOp34
 70
     1
102
RTVSPost2010Prop35
280
     0
102
RTVSPost2010PropOp35
 70
     1
102
RTVSPost2010Prop36
280
     0
102
RTVSPost2010PropOp36
 70
     1
102
RTVSPost2010Prop37
 90
       50
102
RTVSPost2010PropOp37
 70
     1
102
RTVSPost2010Prop38
140
0.0
102
RTVSPost2010PropOp38
 70
     1
102
RTVSPost2010Prop39
140
1.0
102
RTVSPost2010PropOp39
 70
     1
102
RTVSPost2010Prop40
 90
        0
102
RTVSPost2010PropOp40
 70
     1
102
RTVSPost2010Prop41ColorIndex
 90
       18
102
RTVSPost2010Prop41ColorRGB
 90
        0
102
RTVSPost2010PropOp41
 70
     1
102
RTVSPost2010Prop42
 90
       50
102
RTVSPost2010PropOp42
 70
     1
102
RTVSPost2010Prop43
 90
        3
102
RTVSPost2010PropOp43
 70
     1
102
RTVSPost2010Prop44ColorIndex
 90
        5
102
RTVSPost2010Prop44ColorRGB
 90
      255
102
RTVSPost2010PropOp44
 70
     1
102
RTVSPost2010Prop45
280
     0
102
RTVSPost2010PropOp45
 70
     1
102
RTVSPost2010Prop46
 90
       50
102
RTVSPost2010PropOp46
 70
     1
102
RTVSPost2010Prop47
 90
       50
102
RTVSPost2010PropOp47
 70
     1
102
RTVSPost2010Prop48
 90
       50
102
RTVSPost2010PropOp48
 70
     1
102
RTVSPost2010Prop49
280
     0
102
RTVSPost2010PropOp49
 70
     1
102
RTVSPost2010Prop50
 90
       50
102
RTVSPost2010PropOp50
 70
     1
102
RTVSPost2010Prop51ColorIndex
 90
      256
102
RTVSPost2010Prop51ColorRGB
 90
-16777216
102
RTVSPost2010PropOp51
 70
     0
102
RTVSPost2010Prop52
140
1.0
102
RTVSPost2010PropOp52
 70
     0
102
RTVSPost2010Prop53
 90
        2
102
RTVSPost2010PropOp53
 70
     1
102
RTVSPost2010Prop54
  1
strokes_ogs.tif
102
RTVSPost2010PropOp54
 70
     1
102
RTVSPost2010Prop55
280
     0
102
RTVSPost2010PropOp55
 70
     1
102
RTVSPost2010Prop56
140
1.0
102
RTVSPost2010PropOp56
 70
     1
102
RTVSPost2010Prop57
140
1.0
102
RTVSPost2010PropOp57
 70
     1
  0
XRECORD
  5
1C66
102
{ACAD_REACTORS
330
1C65
102
}
330
1C65
100
AcDbXrecord
280
     1
102
RTVSPost2010Prop28
280
     0
102
RTVSPost2010PropOp28
 70
     1
102
RTVSPost2010Prop29
280
     1
102
RTVSPost2010PropOp29
 70
     1
102
RTVSPost2010Prop30
280
     1
102
RTVSPost2010PropOp30
 70
     1
102
RTVSPost2010Prop31
280
     0
102
RTVSPost2010PropOp31
 70
     1
102
RTVSPost2010Prop32
280
     0
102
RTVSPost2010PropOp32
 70
     1
102
RTVSPost2010Prop33
280
     0
102
RTVSPost2010PropOp33
 70
     1
102
RTVSPost2010Prop34
280
     0
102
RTVSPost2010PropOp34
 70
     1
102
RTVSPost2010Prop35
280
     0
102
RTVSPost2010PropOp35
 70
     1
102
RTVSPost2010Prop36
280
     0
102
RTVSPost2010PropOp36
 70
     1
102
RTVSPost2010Prop37
 90
       50
102
RTVSPost2010PropOp37
 70
     1
102
RTVSPost2010Prop38
140
0.0
102
RTVSPost2010PropOp38
 70
     1
102
RTVSPost2010Prop39
140
1.0
102
RTVSPost2010PropOp39
 70
     1
102
RTVSPost2010Prop40
 90
        0
102
RTVSPost2010PropOp40
 70
     1
102
RTVSPost2010Prop41ColorIndex
 90
       18
102
RTVSPost2010Prop41ColorRGB
 90
        0
102
RTVSPost2010PropOp41
 70
     1
102
RTVSPost2010Prop42
 90
       50
102
RTVSPost2010PropOp42
 70
     1
102
RTVSPost2010Prop43
 90
        3
102
RTVSPost2010PropOp43
 70
     1
102
RTVSPost2010Prop44ColorIndex
 90
        5
102
RTVSPost2010Prop44ColorRGB
 90
      255
102
RTVSPost2010PropOp44
 70
     1
102
RTVSPost2010Prop45
280
     0
102
RTVSPost2010PropOp45
 70
     1
102
RTVSPost2010Prop46
 90
       50
102
RTVSPost2010PropOp46
 70
     1
102
RTVSPost2010Prop47
 90
       50
102
RTVSPost2010PropOp47
 70
     1
102
RTVSPost2010Prop48
 90
       50
102
RTVSPost2010PropOp48
 70
     1
102
RTVSPost2010Prop49
280
     0
102
RTVSPost2010PropOp49
 70
     1
102
RTVSPost2010Prop50
 90
       50
102
RTVSPost2010PropOp50
 70
     1
102
RTVSPost2010Prop51ColorIndex
 90
      256
102
RTVSPost2010Prop51ColorRGB
 90
-16777216
102
RTVSPost2010PropOp51
 70
     0
102
RTVSPost2010Prop52
140
1.0
102
RTVSPost2010PropOp52
 70
     0
102
RTVSPost2010Prop53
 90
        2
102
RTVSPost2010PropOp53
 70
     1
102
RTVSPost2010Prop54
  1
strokes_ogs.tif
102
RTVSPost2010PropOp54
 70
     1
102
RTVSPost2010Prop55
280
     0
102
RTVSPost2010PropOp55
 70
     1
102
RTVSPost2010Prop56
140
1.0
102
RTVSPost2010PropOp56
 70
     1
102
RTVSPost2010Prop57
140
1.0
102
RTVSPost2010PropOp57
 70
     1
  0
XRECORD
  5
1C6E
102
{ACAD_REACTORS
330
1C6D
102
}
330
1C6D
100
AcDbXrecord
280
     1
102
RTVSPost2010Prop28
280
     0
102
RTVSPost2010PropOp28
 70
     1
102
RTVSPost2010Prop29
280
     1
102
RTVSPost2010PropOp29
 70
     1
102
RTVSPost2010Prop30
280
     1
102
RTVSPost2010PropOp30
 70
     1
102
RTVSPost2010Prop31
280
     0
102
RTVSPost2010PropOp31
 70
     1
102
RTVSPost2010Prop32
280
     0
102
RTVSPost2010PropOp32
 70
     1
102
RTVSPost2010Prop33
280
     0
102
RTVSPost2010PropOp33
 70
     1
102
RTVSPost2010Prop34
280
     0
102
RTVSPost2010PropOp34
 70
     1
102
RTVSPost2010Prop35
280
     0
102
RTVSPost2010PropOp35
 70
     1
102
RTVSPost2010Prop36
280
     0
102
RTVSPost2010PropOp36
 70
     1
102
RTVSPost2010Prop37
 90
       50
102
RTVSPost2010PropOp37
 70
     1
102
RTVSPost2010Prop38
140
0.0
102
RTVSPost2010PropOp38
 70
     1
102
RTVSPost2010Prop39
140
1.0
102
RTVSPost2010PropOp39
 70
     1
102
RTVSPost2010Prop40
 90
        0
102
RTVSPost2010PropOp40
 70
     1
102
RTVSPost2010Prop41ColorIndex
 90
       18
102
RTVSPost2010Prop41ColorRGB
 90
        0
102
RTVSPost2010PropOp41
 70
     1
102
RTVSPost2010Prop42
 90
       50
102
RTVSPost2010PropOp42
 70
     1
102
RTVSPost2010Prop43
 90
        3
102
RTVSPost2010PropOp43
 70
     1
102
RTVSPost2010Prop44ColorIndex
 90
        5
102
RTVSPost2010Prop44ColorRGB
 90
      255
102
RTVSPost2010PropOp44
 70
     1
102
RTVSPost2010Prop45
280
     0
102
RTVSPost2010PropOp45
 70
     1
102
RTVSPost2010Prop46
 90
       50
102
RTVSPost2010PropOp46
 70
     1
102
RTVSPost2010Prop47
 90
       50
102
RTVSPost2010PropOp47
 70
     1
102
RTVSPost2010Prop48
 90
       50
102
RTVSPost2010PropOp48
 70
     1
102
RTVSPost2010Prop49
280
     0
102
RTVSPost2010PropOp49
 70
     1
102
RTVSPost2010Prop50
 90
       50
102
RTVSPost2010PropOp50
 70
     1
102
RTVSPost2010Prop51ColorIndex
 90
      256
102
RTVSPost2010Prop51ColorRGB
 90
-16777216
102
RTVSPost2010PropOp51
 70
     0
102
RTVSPost2010Prop52
140
1.0
102
RTVSPost2010PropOp52
 70
     0
102
RTVSPost2010Prop53
 90
        2
102
RTVSPost2010PropOp53
 70
     1
102
RTVSPost2010Prop54
  1
strokes_ogs.tif
102
RTVSPost2010PropOp54
 70
     1
102
RTVSPost2010Prop55
280
     0
102
RTVSPost2010PropOp55
 70
     1
102
RTVSPost2010Prop56
140
1.0
102
RTVSPost2010PropOp56
 70
     1
102
RTVSPost2010Prop57
140
1.0
102
RTVSPost2010PropOp57
 70
     1
  0
XRECORD
  5
1C76
102
{ACAD_REACTORS
330
1C75
102
}
330
1C75
100
AcDbXrecord
280
     1
102
RTVSPost2010Prop28
280
     0
102
RTVSPost2010PropOp28
 70
     1
102
RTVSPost2010Prop29
280
     1
102
RTVSPost2010PropOp29
 70
     1
102
RTVSPost2010Prop30
280
     1
102
RTVSPost2010PropOp30
 70
     1
102
RTVSPost2010Prop31
280
     0
102
RTVSPost2010PropOp31
 70
     1
102
RTVSPost2010Prop32
280
     0
102
RTVSPost2010PropOp32
 70
     1
102
RTVSPost2010Prop33
280
     0
102
RTVSPost2010PropOp33
 70
     1
102
RTVSPost2010Prop34
280
     0
102
RTVSPost2010PropOp34
 70
     1
102
RTVSPost2010Prop35
280
     0
102
RTVSPost2010PropOp35
 70
     1
102
RTVSPost2010Prop36
280
     0
102
RTVSPost2010PropOp36
 70
     1
102
RTVSPost2010Prop37
 90
       50
102
RTVSPost2010PropOp37
 70
     1
102
RTVSPost2010Prop38
140
0.0
102
RTVSPost2010PropOp38
 70
     1
102
RTVSPost2010Prop39
140
1.0
102
RTVSPost2010PropOp39
 70
     1
102
RTVSPost2010Prop40
 90
        0
102
RTVSPost2010PropOp40
 70
     1
102
RTVSPost2010Prop41ColorIndex
 90
       18
102
RTVSPost2010Prop41ColorRGB
 90
        0
102
RTVSPost2010PropOp41
 70
     1
102
RTVSPost2010Prop42
 90
       50
102
RTVSPost2010PropOp42
 70
     1
102
RTVSPost2010Prop43
 90
        3
102
RTVSPost2010PropOp43
 70
     1
102
RTVSPost2010Prop44ColorIndex
 90
        5
102
RTVSPost2010Prop44ColorRGB
 90
      255
102
RTVSPost2010PropOp44
 70
     1
102
RTVSPost2010Prop45
280
     0
102
RTVSPost2010PropOp45
 70
     1
102
RTVSPost2010Prop46
 90
       50
102
RTVSPost2010PropOp46
 70
     1
102
RTVSPost2010Prop47
 90
       50
102
RTVSPost2010PropOp47
 70
     1
102
RTVSPost2010Prop48
 90
       50
102
RTVSPost2010PropOp48
 70
     1
102
RTVSPost2010Prop49
280
     0
102
RTVSPost2010PropOp49
 70
     1
102
RTVSPost2010Prop50
 90
       50
102
RTVSPost2010PropOp50
 70
     1
102
RTVSPost2010Prop51ColorIndex
 90
      256
102
RTVSPost2010Prop51ColorRGB
 90
-16777216
102
RTVSPost2010PropOp51
 70
     0
102
RTVSPost2010Prop52
140
1.0
102
RTVSPost2010PropOp52
 70
     0
102
RTVSPost2010Prop53
 90
        2
102
RTVSPost2010PropOp53
 70
     1
102
RTVSPost2010Prop54
  1
strokes_ogs.tif
102
RTVSPost2010PropOp54
 70
     1
102
RTVSPost2010Prop55
280
     0
102
RTVSPost2010PropOp55
 70
     1
102
RTVSPost2010Prop56
140
1.0
102
RTVSPost2010PropOp56
 70
     1
102
RTVSPost2010Prop57
140
1.0
102
RTVSPost2010PropOp57
 70
     1
  0
XRECORD
  5
1C6A
102
{ACAD_REACTORS
330
1C69
102
}
330
1C69
100
AcDbXrecord
280
     1
102
RTVSPost2010Prop28
280
     0
102
RTVSPost2010PropOp28
 70
     1
102
RTVSPost2010Prop29
280
     1
102
RTVSPost2010PropOp29
 70
     1
102
RTVSPost2010Prop30
280
     1
102
RTVSPost2010PropOp30
 70
     1
102
RTVSPost2010Prop31
280
     0
102
RTVSPost2010PropOp31
 70
     1
102
RTVSPost2010Prop32
280
     0
102
RTVSPost2010PropOp32
 70
     1
102
RTVSPost2010Prop33
280
     0
102
RTVSPost2010PropOp33
 70
     1
102
RTVSPost2010Prop34
280
     0
102
RTVSPost2010PropOp34
 70
     1
102
RTVSPost2010Prop35
280
     0
102
RTVSPost2010PropOp35
 70
     1
102
RTVSPost2010Prop36
280
     0
102
RTVSPost2010PropOp36
 70
     1
102
RTVSPost2010Prop37
 90
       50
102
RTVSPost2010PropOp37
 70
     1
102
RTVSPost2010Prop38
140
0.0
102
RTVSPost2010PropOp38
 70
     1
102
RTVSPost2010Prop39
140
1.0
102
RTVSPost2010PropOp39
 70
     1
102
RTVSPost2010Prop40
 90
        0
102
RTVSPost2010PropOp40
 70
     1
102
RTVSPost2010Prop41ColorIndex
 90
       18
102
RTVSPost2010Prop41ColorRGB
 90
        0
102
RTVSPost2010PropOp41
 70
     1
102
RTVSPost2010Prop42
 90
       50
102
RTVSPost2010PropOp42
 70
     1
102
RTVSPost2010Prop43
 90
        3
102
RTVSPost2010PropOp43
 70
     1
102
RTVSPost2010Prop44ColorIndex
 90
        5
102
RTVSPost2010Prop44ColorRGB
 90
      255
102
RTVSPost2010PropOp44
 70
     1
102
RTVSPost2010Prop45
280
     0
102
RTVSPost2010PropOp45
 70
     1
102
RTVSPost2010Prop46
 90
       50
102
RTVSPost2010PropOp46
 70
     1
102
RTVSPost2010Prop47
 90
       50
102
RTVSPost2010PropOp47
 70
     1
102
RTVSPost2010Prop48
 90
       50
102
RTVSPost2010PropOp48
 70
     1
102
RTVSPost2010Prop49
280
     0
102
RTVSPost2010PropOp49
 70
     1
102
RTVSPost2010Prop50
 90
       50
102
RTVSPost2010PropOp50
 70
     1
102
RTVSPost2010Prop51ColorIndex
 90
      256
102
RTVSPost2010Prop51ColorRGB
 90
-16777216
102
RTVSPost2010PropOp51
 70
     0
102
RTVSPost2010Prop52
140
1.0
102
RTVSPost2010PropOp52
 70
     0
102
RTVSPost2010Prop53
 90
        2
102
RTVSPost2010PropOp53
 70
     1
102
RTVSPost2010Prop54
  1
strokes_ogs.tif
102
RTVSPost2010PropOp54
 70
     1
102
RTVSPost2010Prop55
280
     0
102
RTVSPost2010PropOp55
 70
     1
102
RTVSPost2010Prop56
140
1.0
102
RTVSPost2010PropOp56
 70
     1
102
RTVSPost2010Prop57
140
1.0
102
RTVSPost2010PropOp57
 70
     1
  0
XRECORD
  5
1C6C
102
{ACAD_REACTORS
330
1C6B
102
}
330
1C6B
100
AcDbXrecord
280
     1
102
RTVSPost2010Prop28
280
     0
102
RTVSPost2010PropOp28
 70
     1
102
RTVSPost2010Prop29
280
     1
102
RTVSPost2010PropOp29
 70
     1
102
RTVSPost2010Prop30
280
     1
102
RTVSPost2010PropOp30
 70
     1
102
RTVSPost2010Prop31
280
     0
102
RTVSPost2010PropOp31
 70
     1
102
RTVSPost2010Prop32
280
     0
102
RTVSPost2010PropOp32
 70
     1
102
RTVSPost2010Prop33
280
     0
102
RTVSPost2010PropOp33
 70
     1
102
RTVSPost2010Prop34
280
     0
102
RTVSPost2010PropOp34
 70
     1
102
RTVSPost2010Prop35
280
     0
102
RTVSPost2010PropOp35
 70
     1
102
RTVSPost2010Prop36
280
     0
102
RTVSPost2010PropOp36
 70
     1
102
RTVSPost2010Prop37
 90
       50
102
RTVSPost2010PropOp37
 70
     1
102
RTVSPost2010Prop38
140
0.0
102
RTVSPost2010PropOp38
 70
     1
102
RTVSPost2010Prop39
140
1.0
102
RTVSPost2010PropOp39
 70
     1
102
RTVSPost2010Prop40
 90
        0
102
RTVSPost2010PropOp40
 70
     1
102
RTVSPost2010Prop41ColorIndex
 90
       18
102
RTVSPost2010Prop41ColorRGB
 90
        0
102
RTVSPost2010PropOp41
 70
     1
102
RTVSPost2010Prop42
 90
       50
102
RTVSPost2010PropOp42
 70
     1
102
RTVSPost2010Prop43
 90
        3
102
RTVSPost2010PropOp43
 70
     1
102
RTVSPost2010Prop44ColorIndex
 90
        5
102
RTVSPost2010Prop44ColorRGB
 90
      255
102
RTVSPost2010PropOp44
 70
     1
102
RTVSPost2010Prop45
280
     0
102
RTVSPost2010PropOp45
 70
     1
102
RTVSPost2010Prop46
 90
       50
102
RTVSPost2010PropOp46
 70
     1
102
RTVSPost2010Prop47
 90
       50
102
RTVSPost2010PropOp47
 70
     1
102
RTVSPost2010Prop48
 90
       50
102
RTVSPost2010PropOp48
 70
     1
102
RTVSPost2010Prop49
280
     0
102
RTVSPost2010PropOp49
 70
     1
102
RTVSPost2010Prop50
 90
       50
102
RTVSPost2010PropOp50
 70
     1
102
RTVSPost2010Prop51ColorIndex
 90
      256
102
RTVSPost2010Prop51ColorRGB
 90
-16777216
102
RTVSPost2010PropOp51
 70
     0
102
RTVSPost2010Prop52
140
1.0
102
RTVSPost2010PropOp52
 70
     0
102
RTVSPost2010Prop53
 90
        2
102
RTVSPost2010PropOp53
 70
     1
102
RTVSPost2010Prop54
  1
strokes_ogs.tif
102
RTVSPost2010PropOp54
 70
     1
102
RTVSPost2010Prop55
280
     0
102
RTVSPost2010PropOp55
 70
     1
102
RTVSPost2010Prop56
140
1.0
102
RTVSPost2010PropOp56
 70
     1
102
RTVSPost2010Prop57
140
1.0
102
RTVSPost2010PropOp57
 70
     1
  0
XRECORD
  5
1C7C
102
{ACAD_REACTORS
330
1C7B
102
}
330
1C7B
100
AcDbXrecord
280
     1
102
RTVSPost2010Prop28
280
     0
102
RTVSPost2010PropOp28
 70
     0
102
RTVSPost2010Prop29
280
     1
102
RTVSPost2010PropOp29
 70
     0
102
RTVSPost2010Prop30
280
     1
102
RTVSPost2010PropOp30
 70
     0
102
RTVSPost2010Prop31
280
     0
102
RTVSPost2010PropOp31
 70
     0
102
RTVSPost2010Prop32
280
     0
102
RTVSPost2010PropOp32
 70
     0
102
RTVSPost2010Prop33
280
     0
102
RTVSPost2010PropOp33
 70
     0
102
RTVSPost2010Prop34
280
     0
102
RTVSPost2010PropOp34
 70
     0
102
RTVSPost2010Prop35
280
     0
102
RTVSPost2010PropOp35
 70
     0
102
RTVSPost2010Prop36
280
     0
102
RTVSPost2010PropOp36
 70
     0
102
RTVSPost2010Prop37
 90
       50
102
RTVSPost2010PropOp37
 70
     0
102
RTVSPost2010Prop38
140
0.0
102
RTVSPost2010PropOp38
 70
     0
102
RTVSPost2010Prop39
140
1.0
102
RTVSPost2010PropOp39
 70
     0
102
RTVSPost2010Prop40
 90
        0
102
RTVSPost2010PropOp40
 70
     0
102
RTVSPost2010Prop41ColorIndex
 90
       18
102
RTVSPost2010Prop41ColorRGB
 90
        0
102
RTVSPost2010PropOp41
 70
     0
102
RTVSPost2010Prop42
 90
       50
102
RTVSPost2010PropOp42
 70
     0
102
RTVSPost2010Prop43
 90
        3
102
RTVSPost2010PropOp43
 70
     0
102
RTVSPost2010Prop44ColorIndex
 90
        5
102
RTVSPost2010Prop44ColorRGB
 90
      255
102
RTVSPost2010PropOp44
 70
     0
102
RTVSPost2010Prop45
280
     0
102
RTVSPost2010PropOp45
 70
     0
102
RTVSPost2010Prop46
 90
       50
102
RTVSPost2010PropOp46
 70
     0
102
RTVSPost2010Prop47
 90
       50
102
RTVSPost2010PropOp47
 70
     0
102
RTVSPost2010Prop48
 90
       50
102
RTVSPost2010PropOp48
 70
     0
102
RTVSPost2010Prop49
280
     0
102
RTVSPost2010PropOp49
 70
     0
102
RTVSPost2010Prop50
 90
       50
102
RTVSPost2010PropOp50
 70
     0
102
RTVSPost2010Prop51ColorIndex
 90
      256
102
RTVSPost2010Prop51ColorRGB
 90
-16777216
102
RTVSPost2010PropOp51
 70
     0
102
RTVSPost2010Prop52
140
1.0
102
RTVSPost2010PropOp52
 70
     0
102
RTVSPost2010Prop53
 90
        2
102
RTVSPost2010PropOp53
 70
     0
102
RTVSPost2010Prop54
  1
strokes_ogs.tif
102
RTVSPost2010PropOp54
 70
     0
102
RTVSPost2010Prop55
280
     0
102
RTVSPost2010PropOp55
 70
     0
102
RTVSPost2010Prop56
140
1.0
102
RTVSPost2010PropOp56
 70
     0
102
RTVSPost2010Prop57
140
1.0
102
RTVSPost2010PropOp57
 70
     0
  0
XRECORD
  5
1C74
102
{ACAD_REACTORS
330
1C73
102
}
330
1C73
100
AcDbXrecord
280
     1
102
RTVSPost2010Prop28
280
     0
102
RTVSPost2010PropOp28
 70
     1
102
RTVSPost2010Prop29
280
     1
102
RTVSPost2010PropOp29
 70
     1
102
RTVSPost2010Prop30
280
     1
102
RTVSPost2010PropOp30
 70
     1
102
RTVSPost2010Prop31
280
     0
102
RTVSPost2010PropOp31
 70
     1
102
RTVSPost2010Prop32
280
     0
102
RTVSPost2010PropOp32
 70
     1
102
RTVSPost2010Prop33
280
     0
102
RTVSPost2010PropOp33
 70
     1
102
RTVSPost2010Prop34
280
     0
102
RTVSPost2010PropOp34
 70
     1
102
RTVSPost2010Prop35
280
     0
102
RTVSPost2010PropOp35
 70
     1
102
RTVSPost2010Prop36
280
     0
102
RTVSPost2010PropOp36
 70
     1
102
RTVSPost2010Prop37
 90
       50
102
RTVSPost2010PropOp37
 70
     1
102
RTVSPost2010Prop38
140
0.0
102
RTVSPost2010PropOp38
 70
     1
102
RTVSPost2010Prop39
140
1.0
102
RTVSPost2010PropOp39
 70
     1
102
RTVSPost2010Prop40
 90
        0
102
RTVSPost2010PropOp40
 70
     1
102
RTVSPost2010Prop41ColorIndex
 90
       18
102
RTVSPost2010Prop41ColorRGB
 90
        0
102
RTVSPost2010PropOp41
 70
     1
102
RTVSPost2010Prop42
 90
       50
102
RTVSPost2010PropOp42
 70
     1
102
RTVSPost2010Prop43
 90
        3
102
RTVSPost2010PropOp43
 70
     1
102
RTVSPost2010Prop44ColorIndex
 90
        5
102
RTVSPost2010Prop44ColorRGB
 90
      255
102
RTVSPost2010PropOp44
 70
     1
102
RTVSPost2010Prop45
280
     0
102
RTVSPost2010PropOp45
 70
     1
102
RTVSPost2010Prop46
 90
       50
102
RTVSPost2010PropOp46
 70
     1
102
RTVSPost2010Prop47
 90
       50
102
RTVSPost2010PropOp47
 70
     1
102
RTVSPost2010Prop48
 90
       50
102
RTVSPost2010PropOp48
 70
     1
102
RTVSPost2010Prop49
280
     0
102
RTVSPost2010PropOp49
 70
     1
102
RTVSPost2010Prop50
 90
       50
102
RTVSPost2010PropOp50
 70
     1
102
RTVSPost2010Prop51ColorIndex
 90
      256
102
RTVSPost2010Prop51ColorRGB
 90
-16777216
102
RTVSPost2010PropOp51
 70
     0
102
RTVSPost2010Prop52
140
1.0
102
RTVSPost2010PropOp52
 70
     0
102
RTVSPost2010Prop53
 90
        2
102
RTVSPost2010PropOp53
 70
     1
102
RTVSPost2010Prop54
  1
strokes_ogs.tif
102
RTVSPost2010PropOp54
 70
     1
102
RTVSPost2010Prop55
280
     0
102
RTVSPost2010PropOp55
 70
     1
102
RTVSPost2010Prop56
140
1.0
102
RTVSPost2010PropOp56
 70
     1
102
RTVSPost2010Prop57
140
1.0
102
RTVSPost2010PropOp57
 70
     1
  0
XRECORD
  5
1C58
102
{ACAD_REACTORS
330
1C57
102
}
330
1C57
100
AcDbXrecord
280
     1
102
RTVSPost2010Prop28
280
     0
102
RTVSPost2010PropOp28
 70
     1
102
RTVSPost2010Prop29
280
     1
102
RTVSPost2010PropOp29
 70
     1
102
RTVSPost2010Prop30
280
     1
102
RTVSPost2010PropOp30
 70
     1
102
RTVSPost2010Prop31
280
     0
102
RTVSPost2010PropOp31
 70
     1
102
RTVSPost2010Prop32
280
     0
102
RTVSPost2010PropOp32
 70
     1
102
RTVSPost2010Prop33
280
     0
102
RTVSPost2010PropOp33
 70
     1
102
RTVSPost2010Prop34
280
     0
102
RTVSPost2010PropOp34
 70
     1
102
RTVSPost2010Prop35
280
     0
102
RTVSPost2010PropOp35
 70
     1
102
RTVSPost2010Prop36
280
     0
102
RTVSPost2010PropOp36
 70
     1
102
RTVSPost2010Prop37
 90
       50
102
RTVSPost2010PropOp37
 70
     1
102
RTVSPost2010Prop38
140
0.0
102
RTVSPost2010PropOp38
 70
     1
102
RTVSPost2010Prop39
140
1.0
102
RTVSPost2010PropOp39
 70
     1
102
RTVSPost2010Prop40
 90
        0
102
RTVSPost2010PropOp40
 70
     1
102
RTVSPost2010Prop41ColorIndex
 90
       18
102
RTVSPost2010Prop41ColorRGB
 90
        0
102
RTVSPost2010PropOp41
 70
     1
102
RTVSPost2010Prop42
 90
       50
102
RTVSPost2010PropOp42
 70
     1
102
RTVSPost2010Prop43
 90
        3
102
RTVSPost2010PropOp43
 70
     1
102
RTVSPost2010Prop44ColorIndex
 90
        5
102
RTVSPost2010Prop44ColorRGB
 90
      255
102
RTVSPost2010PropOp44
 70
     1
102
RTVSPost2010Prop45
280
     0
102
RTVSPost2010PropOp45
 70
     1
102
RTVSPost2010Prop46
 90
       50
102
RTVSPost2010PropOp46
 70
     1
102
RTVSPost2010Prop47
 90
       50
102
RTVSPost2010PropOp47
 70
     1
102
RTVSPost2010Prop48
 90
       50
102
RTVSPost2010PropOp48
 70
     1
102
RTVSPost2010Prop49
280
     0
102
RTVSPost2010PropOp49
 70
     1
102
RTVSPost2010Prop50
 90
       50
102
RTVSPost2010PropOp50
 70
     1
102
RTVSPost2010Prop51ColorIndex
 90
      256
102
RTVSPost2010Prop51ColorRGB
 90
-16777216
102
RTVSPost2010PropOp51
 70
     0
102
RTVSPost2010Prop52
140
1.0
102
RTVSPost2010PropOp52
 70
     0
102
RTVSPost2010Prop53
 90
        2
102
RTVSPost2010PropOp53
 70
     1
102
RTVSPost2010Prop54
  1
strokes_ogs.tif
102
RTVSPost2010PropOp54
 70
     1
102
RTVSPost2010Prop55
280
     0
102
RTVSPost2010PropOp55
 70
     1
102
RTVSPost2010Prop56
140
1.0
102
RTVSPost2010PropOp56
 70
     1
102
RTVSPost2010Prop57
140
1.0
102
RTVSPost2010PropOp57
 70
     1
  0
XRECORD
  5
1C5A
102
{ACAD_REACTORS
330
1C59
102
}
330
1C59
100
AcDbXrecord
280
     1
102
RTVSPost2010Prop28
280
     0
102
RTVSPost2010PropOp28
 70
     1
102
RTVSPost2010Prop29
280
     1
102
RTVSPost2010PropOp29
 70
     1
102
RTVSPost2010Prop30
280
     1
102
RTVSPost2010PropOp30
 70
     1
102
RTVSPost2010Prop31
280
     0
102
RTVSPost2010PropOp31
 70
     1
102
RTVSPost2010Prop32
280
     0
102
RTVSPost2010PropOp32
 70
     1
102
RTVSPost2010Prop33
280
     0
102
RTVSPost2010PropOp33
 70
     1
102
RTVSPost2010Prop34
280
     0
102
RTVSPost2010PropOp34
 70
     1
102
RTVSPost2010Prop35
280
     0
102
RTVSPost2010PropOp35
 70
     1
102
RTVSPost2010Prop36
280
     0
102
RTVSPost2010PropOp36
 70
     1
102
RTVSPost2010Prop37
 90
       50
102
RTVSPost2010PropOp37
 70
     1
102
RTVSPost2010Prop38
140
0.0
102
RTVSPost2010PropOp38
 70
     1
102
RTVSPost2010Prop39
140
1.0
102
RTVSPost2010PropOp39
 70
     1
102
RTVSPost2010Prop40
 90
        0
102
RTVSPost2010PropOp40
 70
     1
102
RTVSPost2010Prop41ColorIndex
 90
       18
102
RTVSPost2010Prop41ColorRGB
 90
        0
102
RTVSPost2010PropOp41
 70
     1
102
RTVSPost2010Prop42
 90
       50
102
RTVSPost2010PropOp42
 70
     1
102
RTVSPost2010Prop43
 90
        3
102
RTVSPost2010PropOp43
 70
     1
102
RTVSPost2010Prop44ColorIndex
 90
        5
102
RTVSPost2010Prop44ColorRGB
 90
      255
102
RTVSPost2010PropOp44
 70
     1
102
RTVSPost2010Prop45
280
     0
102
RTVSPost2010PropOp45
 70
     1
102
RTVSPost2010Prop46
 90
       50
102
RTVSPost2010PropOp46
 70
     1
102
RTVSPost2010Prop47
 90
       50
102
RTVSPost2010PropOp47
 70
     1
102
RTVSPost2010Prop48
 90
       50
102
RTVSPost2010PropOp48
 70
     1
102
RTVSPost2010Prop49
280
     0
102
RTVSPost2010PropOp49
 70
     1
102
RTVSPost2010Prop50
 90
       50
102
RTVSPost2010PropOp50
 70
     1
102
RTVSPost2010Prop51ColorIndex
 90
      256
102
RTVSPost2010Prop51ColorRGB
 90
-16777216
102
RTVSPost2010PropOp51
 70
     0
102
RTVSPost2010Prop52
140
1.0
102
RTVSPost2010PropOp52
 70
     0
102
RTVSPost2010Prop53
 90
        2
102
RTVSPost2010PropOp53
 70
     1
102
RTVSPost2010Prop54
  1
strokes_ogs.tif
102
RTVSPost2010PropOp54
 70
     1
102
RTVSPost2010Prop55
280
     0
102
RTVSPost2010PropOp55
 70
     1
102
RTVSPost2010Prop56
140
1.0
102
RTVSPost2010PropOp56
 70
     1
102
RTVSPost2010Prop57
140
1.0
102
RTVSPost2010PropOp57
 70
     1
  0
XRECORD
  5
1C5C
102
{ACAD_REACTORS
330
1C5B
102
}
330
1C5B
100
AcDbXrecord
280
     1
102
RTVSPost2010Prop28
280
     0
102
RTVSPost2010PropOp28
 70
     1
102
RTVSPost2010Prop29
280
     1
102
RTVSPost2010PropOp29
 70
     1
102
RTVSPost2010Prop30
280
     1
102
RTVSPost2010PropOp30
 70
     1
102
RTVSPost2010Prop31
280
     0
102
RTVSPost2010PropOp31
 70
     1
102
RTVSPost2010Prop32
280
     0
102
RTVSPost2010PropOp32
 70
     1
102
RTVSPost2010Prop33
280
     0
102
RTVSPost2010PropOp33
 70
     1
102
RTVSPost2010Prop34
280
     0
102
RTVSPost2010PropOp34
 70
     1
102
RTVSPost2010Prop35
280
     0
102
RTVSPost2010PropOp35
 70
     1
102
RTVSPost2010Prop36
280
     0
102
RTVSPost2010PropOp36
 70
     1
102
RTVSPost2010Prop37
 90
       50
102
RTVSPost2010PropOp37
 70
     1
102
RTVSPost2010Prop38
140
0.0
102
RTVSPost2010PropOp38
 70
     1
102
RTVSPost2010Prop39
140
1.0
102
RTVSPost2010PropOp39
 70
     1
102
RTVSPost2010Prop40
 90
        0
102
RTVSPost2010PropOp40
 70
     1
102
RTVSPost2010Prop41ColorIndex
 90
       18
102
RTVSPost2010Prop41ColorRGB
 90
        0
102
RTVSPost2010PropOp41
 70
     1
102
RTVSPost2010Prop42
 90
       50
102
RTVSPost2010PropOp42
 70
     1
102
RTVSPost2010Prop43
 90
        3
102
RTVSPost2010PropOp43
 70
     1
102
RTVSPost2010Prop44ColorIndex
 90
        5
102
RTVSPost2010Prop44ColorRGB
 90
      255
102
RTVSPost2010PropOp44
 70
     1
102
RTVSPost2010Prop45
280
     0
102
RTVSPost2010PropOp45
 70
     1
102
RTVSPost2010Prop46
 90
       50
102
RTVSPost2010PropOp46
 70
     1
102
RTVSPost2010Prop47
 90
       50
102
RTVSPost2010PropOp47
 70
     1
102
RTVSPost2010Prop48
 90
       50
102
RTVSPost2010PropOp48
 70
     1
102
RTVSPost2010Prop49
280
     0
102
RTVSPost2010PropOp49
 70
     1
102
RTVSPost2010Prop50
 90
       50
102
RTVSPost2010PropOp50
 70
     1
102
RTVSPost2010Prop51ColorIndex
 90
      256
102
RTVSPost2010Prop51ColorRGB
 90
-16777216
102
RTVSPost2010PropOp51
 70
     0
102
RTVSPost2010Prop52
140
1.0
102
RTVSPost2010PropOp52
 70
     0
102
RTVSPost2010Prop53
 90
        2
102
RTVSPost2010PropOp53
 70
     1
102
RTVSPost2010Prop54
  1
strokes_ogs.tif
102
RTVSPost2010PropOp54
 70
     1
102
RTVSPost2010Prop55
280
     0
102
RTVSPost2010PropOp55
 70
     1
102
RTVSPost2010Prop56
140
1.0
102
RTVSPost2010PropOp56
 70
     1
102
RTVSPost2010Prop57
140
1.0
102
RTVSPost2010PropOp57
 70
     1
  0
XRECORD
  5
1C5E
102
{ACAD_REACTORS
330
1C5D
102
}
330
1C5D
100
AcDbXrecord
280
     1
102
RTVSPost2010Prop28
280
     0
102
RTVSPost2010PropOp28
 70
     1
102
RTVSPost2010Prop29
280
     1
102
RTVSPost2010PropOp29
 70
     1
102
RTVSPost2010Prop30
280
     1
102
RTVSPost2010PropOp30
 70
     1
102
RTVSPost2010Prop31
280
     0
102
RTVSPost2010PropOp31
 70
     1
102
RTVSPost2010Prop32
280
     0
102
RTVSPost2010PropOp32
 70
     1
102
RTVSPost2010Prop33
280
     0
102
RTVSPost2010PropOp33
 70
     1
102
RTVSPost2010Prop34
280
     0
102
RTVSPost2010PropOp34
 70
     1
102
RTVSPost2010Prop35
280
     0
102
RTVSPost2010PropOp35
 70
     1
102
RTVSPost2010Prop36
280
     0
102
RTVSPost2010PropOp36
 70
     1
102
RTVSPost2010Prop37
 90
       50
102
RTVSPost2010PropOp37
 70
     1
102
RTVSPost2010Prop38
140
0.0
102
RTVSPost2010PropOp38
 70
     1
102
RTVSPost2010Prop39
140
1.0
102
RTVSPost2010PropOp39
 70
     1
102
RTVSPost2010Prop40
 90
        0
102
RTVSPost2010PropOp40
 70
     1
102
RTVSPost2010Prop41ColorIndex
 90
       18
102
RTVSPost2010Prop41ColorRGB
 90
        0
102
RTVSPost2010PropOp41
 70
     1
102
RTVSPost2010Prop42
 90
       50
102
RTVSPost2010PropOp42
 70
     1
102
RTVSPost2010Prop43
 90
        3
102
RTVSPost2010PropOp43
 70
     1
102
RTVSPost2010Prop44ColorIndex
 90
        5
102
RTVSPost2010Prop44ColorRGB
 90
      255
102
RTVSPost2010PropOp44
 70
     1
102
RTVSPost2010Prop45
280
     0
102
RTVSPost2010PropOp45
 70
     1
102
RTVSPost2010Prop46
 90
       50
102
RTVSPost2010PropOp46
 70
     1
102
RTVSPost2010Prop47
 90
       50
102
RTVSPost2010PropOp47
 70
     1
102
RTVSPost2010Prop48
 90
       50
102
RTVSPost2010PropOp48
 70
     1
102
RTVSPost2010Prop49
280
     0
102
RTVSPost2010PropOp49
 70
     1
102
RTVSPost2010Prop50
 90
       50
102
RTVSPost2010PropOp50
 70
     1
102
RTVSPost2010Prop51ColorIndex
 90
      256
102
RTVSPost2010Prop51ColorRGB
 90
-16777216
102
RTVSPost2010PropOp51
 70
     0
102
RTVSPost2010Prop52
140
1.0
102
RTVSPost2010PropOp52
 70
     0
102
RTVSPost2010Prop53
 90
        2
102
RTVSPost2010PropOp53
 70
     1
102
RTVSPost2010Prop54
  1
strokes_ogs.tif
102
RTVSPost2010PropOp54
 70
     1
102
RTVSPost2010Prop55
280
     0
102
RTVSPost2010PropOp55
 70
     1
102
RTVSPost2010Prop56
140
1.0
102
RTVSPost2010PropOp56
 70
     1
102
RTVSPost2010Prop57
140
1.0
102
RTVSPost2010PropOp57
 70
     1
  0
XRECORD
  5
1C64
102
{ACAD_REACTORS
330
1C63
102
}
330
1C63
100
AcDbXrecord
280
     1
102
RTVSPost2010Prop28
280
     0
102
RTVSPost2010PropOp28
 70
     1
102
RTVSPost2010Prop29
280
     1
102
RTVSPost2010PropOp29
 70
     1
102
RTVSPost2010Prop30
280
     1
102
RTVSPost2010PropOp30
 70
     1
102
RTVSPost2010Prop31
280
     0
102
RTVSPost2010PropOp31
 70
     1
102
RTVSPost2010Prop32
280
     0
102
RTVSPost2010PropOp32
 70
     1
102
RTVSPost2010Prop33
280
     0
102
RTVSPost2010PropOp33
 70
     1
102
RTVSPost2010Prop34
280
     0
102
RTVSPost2010PropOp34
 70
     1
102
RTVSPost2010Prop35
280
     0
102
RTVSPost2010PropOp35
 70
     1
102
RTVSPost2010Prop36
280
     0
102
RTVSPost2010PropOp36
 70
     1
102
RTVSPost2010Prop37
 90
       50
102
RTVSPost2010PropOp37
 70
     1
102
RTVSPost2010Prop38
140
0.0
102
RTVSPost2010PropOp38
 70
     1
102
RTVSPost2010Prop39
140
1.0
102
RTVSPost2010PropOp39
 70
     1
102
RTVSPost2010Prop40
 90
        0
102
RTVSPost2010PropOp40
 70
     1
102
RTVSPost2010Prop41ColorIndex
 90
       18
102
RTVSPost2010Prop41ColorRGB
 90
        0
102
RTVSPost2010PropOp41
 70
     1
102
RTVSPost2010Prop42
 90
       50
102
RTVSPost2010PropOp42
 70
     1
102
RTVSPost2010Prop43
 90
        3
102
RTVSPost2010PropOp43
 70
     1
102
RTVSPost2010Prop44ColorIndex
 90
        5
102
RTVSPost2010Prop44ColorRGB
 90
      255
102
RTVSPost2010PropOp44
 70
     1
102
RTVSPost2010Prop45
280
     0
102
RTVSPost2010PropOp45
 70
     1
102
RTVSPost2010Prop46
 90
       50
102
RTVSPost2010PropOp46
 70
     1
102
RTVSPost2010Prop47
 90
       50
102
RTVSPost2010PropOp47
 70
     1
102
RTVSPost2010Prop48
 90
       50
102
RTVSPost2010PropOp48
 70
     1
102
RTVSPost2010Prop49
280
     0
102
RTVSPost2010PropOp49
 70
     1
102
RTVSPost2010Prop50
 90
       50
102
RTVSPost2010PropOp50
 70
     1
102
RTVSPost2010Prop51ColorIndex
 90
      256
102
RTVSPost2010Prop51ColorRGB
 90
-16777216
102
RTVSPost2010PropOp51
 70
     0
102
RTVSPost2010Prop52
140
1.0
102
RTVSPost2010PropOp52
 70
     0
102
RTVSPost2010Prop53
 90
        2
102
RTVSPost2010PropOp53
 70
     1
102
RTVSPost2010Prop54
  1
strokes_ogs.tif
102
RTVSPost2010PropOp54
 70
     1
102
RTVSPost2010Prop55
280
     0
102
RTVSPost2010PropOp55
 70
     1
102
RTVSPost2010Prop56
140
1.0
102
RTVSPost2010PropOp56
 70
     1
102
RTVSPost2010Prop57
140
1.0
102
RTVSPost2010PropOp57
 70
     1
  0
XRECORD
  5
1C78
102
{ACAD_REACTORS
330
1C77
102
}
330
1C77
100
AcDbXrecord
280
     1
102
RTVSPost2010Prop28
280
     0
102
RTVSPost2010PropOp28
 70
     0
102
RTVSPost2010Prop29
280
     1
102
RTVSPost2010PropOp29
 70
     0
102
RTVSPost2010Prop30
280
     1
102
RTVSPost2010PropOp30
 70
     0
102
RTVSPost2010Prop31
280
     0
102
RTVSPost2010PropOp31
 70
     0
102
RTVSPost2010Prop32
280
     0
102
RTVSPost2010PropOp32
 70
     0
102
RTVSPost2010Prop33
280
     0
102
RTVSPost2010PropOp33
 70
     0
102
RTVSPost2010Prop34
280
     0
102
RTVSPost2010PropOp34
 70
     0
102
RTVSPost2010Prop35
280
     0
102
RTVSPost2010PropOp35
 70
     0
102
RTVSPost2010Prop36
280
     0
102
RTVSPost2010PropOp36
 70
     0
102
RTVSPost2010Prop37
 90
       50
102
RTVSPost2010PropOp37
 70
     0
102
RTVSPost2010Prop38
140
0.0
102
RTVSPost2010PropOp38
 70
     0
102
RTVSPost2010Prop39
140
1.0
102
RTVSPost2010PropOp39
 70
     0
102
RTVSPost2010Prop40
 90
        0
102
RTVSPost2010PropOp40
 70
     0
102
RTVSPost2010Prop41ColorIndex
 90
       18
102
RTVSPost2010Prop41ColorRGB
 90
        0
102
RTVSPost2010PropOp41
 70
     0
102
RTVSPost2010Prop42
 90
       50
102
RTVSPost2010PropOp42
 70
     0
102
RTVSPost2010Prop43
 90
        3
102
RTVSPost2010PropOp43
 70
     0
102
RTVSPost2010Prop44ColorIndex
 90
        5
102
RTVSPost2010Prop44ColorRGB
 90
      255
102
RTVSPost2010PropOp44
 70
     0
102
RTVSPost2010Prop45
280
     0
102
RTVSPost2010PropOp45
 70
     0
102
RTVSPost2010Prop46
 90
       50
102
RTVSPost2010PropOp46
 70
     0
102
RTVSPost2010Prop47
 90
       50
102
RTVSPost2010PropOp47
 70
     0
102
RTVSPost2010Prop48
 90
       50
102
RTVSPost2010PropOp48
 70
     0
102
RTVSPost2010Prop49
280
     0
102
RTVSPost2010PropOp49
 70
     0
102
RTVSPost2010Prop50
 90
       50
102
RTVSPost2010PropOp50
 70
     0
102
RTVSPost2010Prop51ColorIndex
 90
      256
102
RTVSPost2010Prop51ColorRGB
 90
-16777216
102
RTVSPost2010PropOp51
 70
     0
102
RTVSPost2010Prop52
140
1.0
102
RTVSPost2010PropOp52
 70
     0
102
RTVSPost2010Prop53
 90
        2
102
RTVSPost2010PropOp53
 70
     0
102
RTVSPost2010Prop54
  1
strokes_ogs.tif
102
RTVSPost2010PropOp54
 70
     0
102
RTVSPost2010Prop55
280
     0
102
RTVSPost2010PropOp55
 70
     0
102
RTVSPost2010Prop56
140
1.0
102
RTVSPost2010PropOp56
 70
     0
102
RTVSPost2010Prop57
140
1.0
102
RTVSPost2010PropOp57
 70
     0
  0
XRECORD
  5
1C72
102
{ACAD_REACTORS
330
1C71
102
}
330
1C71
100
AcDbXrecord
280
     1
102
RTVSPost2010Prop28
280
     0
102
RTVSPost2010PropOp28
 70
     1
102
RTVSPost2010Prop29
280
     1
102
RTVSPost2010PropOp29
 70
     1
102
RTVSPost2010Prop30
280
     1
102
RTVSPost2010PropOp30
 70
     1
102
RTVSPost2010Prop31
280
     0
102
RTVSPost2010PropOp31
 70
     1
102
RTVSPost2010Prop32
280
     0
102
RTVSPost2010PropOp32
 70
     1
102
RTVSPost2010Prop33
280
     0
102
RTVSPost2010PropOp33
 70
     1
102
RTVSPost2010Prop34
280
     0
102
RTVSPost2010PropOp34
 70
     1
102
RTVSPost2010Prop35
280
     0
102
RTVSPost2010PropOp35
 70
     1
102
RTVSPost2010Prop36
280
     0
102
RTVSPost2010PropOp36
 70
     1
102
RTVSPost2010Prop37
 90
       50
102
RTVSPost2010PropOp37
 70
     1
102
RTVSPost2010Prop38
140
0.0
102
RTVSPost2010PropOp38
 70
     1
102
RTVSPost2010Prop39
140
1.0
102
RTVSPost2010PropOp39
 70
     1
102
RTVSPost2010Prop40
 90
        0
102
RTVSPost2010PropOp40
 70
     1
102
RTVSPost2010Prop41ColorIndex
 90
       18
102
RTVSPost2010Prop41ColorRGB
 90
        0
102
RTVSPost2010PropOp41
 70
     1
102
RTVSPost2010Prop42
 90
       50
102
RTVSPost2010PropOp42
 70
     1
102
RTVSPost2010Prop43
 90
        3
102
RTVSPost2010PropOp43
 70
     1
102
RTVSPost2010Prop44ColorIndex
 90
        5
102
RTVSPost2010Prop44ColorRGB
 90
      255
102
RTVSPost2010PropOp44
 70
     1
102
RTVSPost2010Prop45
280
     0
102
RTVSPost2010PropOp45
 70
     1
102
RTVSPost2010Prop46
 90
       50
102
RTVSPost2010PropOp46
 70
     1
102
RTVSPost2010Prop47
 90
       50
102
RTVSPost2010PropOp47
 70
     1
102
RTVSPost2010Prop48
 90
       50
102
RTVSPost2010PropOp48
 70
     1
102
RTVSPost2010Prop49
280
     0
102
RTVSPost2010PropOp49
 70
     1
102
RTVSPost2010Prop50
 90
       50
102
RTVSPost2010PropOp50
 70
     1
102
RTVSPost2010Prop51ColorIndex
 90
      256
102
RTVSPost2010Prop51ColorRGB
 90
-16777216
102
RTVSPost2010PropOp51
 70
     0
102
RTVSPost2010Prop52
140
1.0
102
RTVSPost2010PropOp52
 70
     0
102
RTVSPost2010Prop53
 90
        2
102
RTVSPost2010PropOp53
 70
     1
102
RTVSPost2010Prop54
  1
strokes_ogs.tif
102
RTVSPost2010PropOp54
 70
     1
102
RTVSPost2010Prop55
280
     0
102
RTVSPost2010PropOp55
 70
     1
102
RTVSPost2010Prop56
140
1.0
102
RTVSPost2010PropOp56
 70
     1
102
RTVSPost2010Prop57
140
1.0
102
RTVSPost2010PropOp57
 70
     1
  0
XRECORD
  5
1C88
102
{ACAD_REACTORS
330
1C87
102
}
330
1C87
100
AcDbXrecord
280
     1
102
RTVSPost2010Prop28
280
     0
102
RTVSPost2010PropOp28
 70
     1
102
RTVSPost2010Prop29
280
     1
102
RTVSPost2010PropOp29
 70
     1
102
RTVSPost2010Prop30
280
     1
102
RTVSPost2010PropOp30
 70
     1
102
RTVSPost2010Prop31
280
     0
102
RTVSPost2010PropOp31
 70
     1
102
RTVSPost2010Prop32
280
     0
102
RTVSPost2010PropOp32
 70
     1
102
RTVSPost2010Prop33
280
     0
102
RTVSPost2010PropOp33
 70
     1
102
RTVSPost2010Prop34
280
     0
102
RTVSPost2010PropOp34
 70
     1
102
RTVSPost2010Prop35
280
     0
102
RTVSPost2010PropOp35
 70
     1
102
RTVSPost2010Prop36
280
     0
102
RTVSPost2010PropOp36
 70
     1
102
RTVSPost2010Prop37
 90
       50
102
RTVSPost2010PropOp37
 70
     1
102
RTVSPost2010Prop38
140
0.0
102
RTVSPost2010PropOp38
 70
     1
102
RTVSPost2010Prop39
140
1.0
102
RTVSPost2010PropOp39
 70
     1
102
RTVSPost2010Prop40
 90
        0
102
RTVSPost2010PropOp40
 70
     1
102
RTVSPost2010Prop41ColorIndex
 90
       18
102
RTVSPost2010Prop41ColorRGB
 90
        0
102
RTVSPost2010PropOp41
 70
     1
102
RTVSPost2010Prop42
 90
       50
102
RTVSPost2010PropOp42
 70
     1
102
RTVSPost2010Prop43
 90
        3
102
RTVSPost2010PropOp43
 70
     1
102
RTVSPost2010Prop44ColorIndex
 90
        5
102
RTVSPost2010Prop44ColorRGB
 90
      255
102
RTVSPost2010PropOp44
 70
     1
102
RTVSPost2010Prop45
280
     0
102
RTVSPost2010PropOp45
 70
     1
102
RTVSPost2010Prop46
 90
       50
102
RTVSPost2010PropOp46
 70
     1
102
RTVSPost2010Prop47
 90
       50
102
RTVSPost2010PropOp47
 70
     1
102
RTVSPost2010Prop48
 90
       50
102
RTVSPost2010PropOp48
 70
     1
102
RTVSPost2010Prop49
280
     0
102
RTVSPost2010PropOp49
 70
     1
102
RTVSPost2010Prop50
 90
       50
102
RTVSPost2010PropOp50
 70
     1
102
RTVSPost2010Prop51ColorIndex
 90
      256
102
RTVSPost2010Prop51ColorRGB
 90
-16777216
102
RTVSPost2010PropOp51
 70
     0
102
RTVSPost2010Prop52
140
1.0
102
RTVSPost2010PropOp52
 70
     0
102
RTVSPost2010Prop53
 90
        2
102
RTVSPost2010PropOp53
 70
     1
102
RTVSPost2010Prop54
  1
strokes_ogs.tif
102
RTVSPost2010PropOp54
 70
     1
102
RTVSPost2010Prop55
280
     0
102
RTVSPost2010PropOp55
 70
     1
102
RTVSPost2010Prop56
140
1.0
102
RTVSPost2010PropOp56
 70
     1
102
RTVSPost2010Prop57
140
1.0
102
RTVSPost2010PropOp57
 70
     1
  0
XRECORD
  5
1C7A
102
{ACAD_REACTORS
330
1C79
102
}
330
1C79
100
AcDbXrecord
280
     1
102
RTVSPost2010Prop28
280
     0
102
RTVSPost2010PropOp28
 70
     0
102
RTVSPost2010Prop29
280
     1
102
RTVSPost2010PropOp29
 70
     0
102
RTVSPost2010Prop30
280
     1
102
RTVSPost2010PropOp30
 70
     0
102
RTVSPost2010Prop31
280
     0
102
RTVSPost2010PropOp31
 70
     0
102
RTVSPost2010Prop32
280
     0
102
RTVSPost2010PropOp32
 70
     0
102
RTVSPost2010Prop33
280
     0
102
RTVSPost2010PropOp33
 70
     0
102
RTVSPost2010Prop34
280
     0
102
RTVSPost2010PropOp34
 70
     0
102
RTVSPost2010Prop35
280
     0
102
RTVSPost2010PropOp35
 70
     0
102
RTVSPost2010Prop36
280
     0
102
RTVSPost2010PropOp36
 70
     0
102
RTVSPost2010Prop37
 90
       50
102
RTVSPost2010PropOp37
 70
     0
102
RTVSPost2010Prop38
140
0.0
102
RTVSPost2010PropOp38
 70
     0
102
RTVSPost2010Prop39
140
1.0
102
RTVSPost2010PropOp39
 70
     0
102
RTVSPost2010Prop40
 90
        0
102
RTVSPost2010PropOp40
 70
     0
102
RTVSPost2010Prop41ColorIndex
 90
       18
102
RTVSPost2010Prop41ColorRGB
 90
        0
102
RTVSPost2010PropOp41
 70
     0
102
RTVSPost2010Prop42
 90
       50
102
RTVSPost2010PropOp42
 70
     0
102
RTVSPost2010Prop43
 90
        3
102
RTVSPost2010PropOp43
 70
     0
102
RTVSPost2010Prop44ColorIndex
 90
        5
102
RTVSPost2010Prop44ColorRGB
 90
      255
102
RTVSPost2010PropOp44
 70
     0
102
RTVSPost2010Prop45
280
     0
102
RTVSPost2010PropOp45
 70
     0
102
RTVSPost2010Prop46
 90
       50
102
RTVSPost2010PropOp46
 70
     0
102
RTVSPost2010Prop47
 90
       50
102
RTVSPost2010PropOp47
 70
     0
102
RTVSPost2010Prop48
 90
       50
102
RTVSPost2010PropOp48
 70
     0
102
RTVSPost2010Prop49
280
     0
102
RTVSPost2010PropOp49
 70
     0
102
RTVSPost2010Prop50
 90
       50
102
RTVSPost2010PropOp50
 70
     0
102
RTVSPost2010Prop51ColorIndex
 90
      256
102
RTVSPost2010Prop51ColorRGB
 90
-16777216
102
RTVSPost2010PropOp51
 70
     0
102
RTVSPost2010Prop52
140
1.0
102
RTVSPost2010PropOp52
 70
     0
102
RTVSPost2010Prop53
 90
        2
102
RTVSPost2010PropOp53
 70
     0
102
RTVSPost2010Prop54
  1
strokes_ogs.tif
102
RTVSPost2010PropOp54
 70
     0
102
RTVSPost2010Prop55
280
     0
102
RTVSPost2010PropOp55
 70
     0
102
RTVSPost2010Prop56
140
1.0
102
RTVSPost2010PropOp56
 70
     0
102
RTVSPost2010Prop57
140
1.0
102
RTVSPost2010PropOp57
 70
     0
  0
XRECORD
  5
1C68
102
{ACAD_REACTORS
330
1C67
102
}
330
1C67
100
AcDbXrecord
280
     1
102
RTVSPost2010Prop28
280
     0
102
RTVSPost2010PropOp28
 70
     1
102
RTVSPost2010Prop29
280
     1
102
RTVSPost2010PropOp29
 70
     1
102
RTVSPost2010Prop30
280
     1
102
RTVSPost2010PropOp30
 70
     1
102
RTVSPost2010Prop31
280
     0
102
RTVSPost2010PropOp31
 70
     1
102
RTVSPost2010Prop32
280
     0
102
RTVSPost2010PropOp32
 70
     1
102
RTVSPost2010Prop33
280
     0
102
RTVSPost2010PropOp33
 70
     1
102
RTVSPost2010Prop34
280
     0
102
RTVSPost2010PropOp34
 70
     1
102
RTVSPost2010Prop35
280
     0
102
RTVSPost2010PropOp35
 70
     1
102
RTVSPost2010Prop36
280
     0
102
RTVSPost2010PropOp36
 70
     1
102
RTVSPost2010Prop37
 90
       50
102
RTVSPost2010PropOp37
 70
     1
102
RTVSPost2010Prop38
140
0.0
102
RTVSPost2010PropOp38
 70
     1
102
RTVSPost2010Prop39
140
1.0
102
RTVSPost2010PropOp39
 70
     1
102
RTVSPost2010Prop40
 90
        0
102
RTVSPost2010PropOp40
 70
     1
102
RTVSPost2010Prop41ColorIndex
 90
       18
102
RTVSPost2010Prop41ColorRGB
 90
        0
102
RTVSPost2010PropOp41
 70
     1
102
RTVSPost2010Prop42
 90
       50
102
RTVSPost2010PropOp42
 70
     1
102
RTVSPost2010Prop43
 90
        3
102
RTVSPost2010PropOp43
 70
     1
102
RTVSPost2010Prop44ColorIndex
 90
        5
102
RTVSPost2010Prop44ColorRGB
 90
      255
102
RTVSPost2010PropOp44
 70
     1
102
RTVSPost2010Prop45
280
     0
102
RTVSPost2010PropOp45
 70
     1
102
RTVSPost2010Prop46
 90
       50
102
RTVSPost2010PropOp46
 70
     1
102
RTVSPost2010Prop47
 90
       50
102
RTVSPost2010PropOp47
 70
     1
102
RTVSPost2010Prop48
 90
       50
102
RTVSPost2010PropOp48
 70
     1
102
RTVSPost2010Prop49
280
     0
102
RTVSPost2010PropOp49
 70
     1
102
RTVSPost2010Prop50
 90
       50
102
RTVSPost2010PropOp50
 70
     1
102
RTVSPost2010Prop51ColorIndex
 90
      256
102
RTVSPost2010Prop51ColorRGB
 90
-16777216
102
RTVSPost2010PropOp51
 70
     0
102
RTVSPost2010Prop52
140
1.0
102
RTVSPost2010PropOp52
 70
     0
102
RTVSPost2010Prop53
 90
        2
102
RTVSPost2010PropOp53
 70
     1
102
RTVSPost2010Prop54
  1
strokes_ogs.tif
102
RTVSPost2010PropOp54
 70
     1
102
RTVSPost2010Prop55
280
     0
102
RTVSPost2010PropOp55
 70
     1
102
RTVSPost2010Prop56
140
1.0
102
RTVSPost2010PropOp56
 70
     1
102
RTVSPost2010Prop57
140
1.0
102
RTVSPost2010PropOp57
 70
     1
  0
XRECORD
  5
1C86
102
{ACAD_REACTORS
330
1C85
102
}
330
1C85
100
AcDbXrecord
280
     1
102
RTVSPost2010Prop28
280
     0
102
RTVSPost2010PropOp28
 70
     1
102
RTVSPost2010Prop29
280
     1
102
RTVSPost2010PropOp29
 70
     1
102
RTVSPost2010Prop30
280
     1
102
RTVSPost2010PropOp30
 70
     1
102
RTVSPost2010Prop31
280
     0
102
RTVSPost2010PropOp31
 70
     1
102
RTVSPost2010Prop32
280
     0
102
RTVSPost2010PropOp32
 70
     1
102
RTVSPost2010Prop33
280
     0
102
RTVSPost2010PropOp33
 70
     1
102
RTVSPost2010Prop34
280
     0
102
RTVSPost2010PropOp34
 70
     1
102
RTVSPost2010Prop35
280
     0
102
RTVSPost2010PropOp35
 70
     1
102
RTVSPost2010Prop36
280
     0
102
RTVSPost2010PropOp36
 70
     1
102
RTVSPost2010Prop37
 90
       50
102
RTVSPost2010PropOp37
 70
     1
102
RTVSPost2010Prop38
140
0.0
102
RTVSPost2010PropOp38
 70
     1
102
RTVSPost2010Prop39
140
1.0
102
RTVSPost2010PropOp39
 70
     1
102
RTVSPost2010Prop40
 90
        0
102
RTVSPost2010PropOp40
 70
     1
102
RTVSPost2010Prop41ColorIndex
 90
       18
102
RTVSPost2010Prop41ColorRGB
 90
        0
102
RTVSPost2010PropOp41
 70
     1
102
RTVSPost2010Prop42
 90
       50
102
RTVSPost2010PropOp42
 70
     1
102
RTVSPost2010Prop43
 90
        3
102
RTVSPost2010PropOp43
 70
     1
102
RTVSPost2010Prop44ColorIndex
 90
        5
102
RTVSPost2010Prop44ColorRGB
 90
      255
102
RTVSPost2010PropOp44
 70
     1
102
RTVSPost2010Prop45
280
     0
102
RTVSPost2010PropOp45
 70
     1
102
RTVSPost2010Prop46
 90
       50
102
RTVSPost2010PropOp46
 70
     1
102
RTVSPost2010Prop47
 90
       50
102
RTVSPost2010PropOp47
 70
     1
102
RTVSPost2010Prop48
 90
       50
102
RTVSPost2010PropOp48
 70
     1
102
RTVSPost2010Prop49
280
     0
102
RTVSPost2010PropOp49
 70
     1
102
RTVSPost2010Prop50
 90
       50
102
RTVSPost2010PropOp50
 70
     1
102
RTVSPost2010Prop51ColorIndex
 90
      256
102
RTVSPost2010Prop51ColorRGB
 90
-16777216
102
RTVSPost2010PropOp51
 70
     0
102
RTVSPost2010Prop52
140
1.0
102
RTVSPost2010PropOp52
 70
     0
102
RTVSPost2010Prop53
 90
        2
102
RTVSPost2010PropOp53
 70
     1
102
RTVSPost2010Prop54
  1
strokes_ogs.tif
102
RTVSPost2010PropOp54
 70
     1
102
RTVSPost2010Prop55
280
     0
102
RTVSPost2010PropOp55
 70
     1
102
RTVSPost2010Prop56
140
1.0
102
RTVSPost2010PropOp56
 70
     1
102
RTVSPost2010Prop57
140
1.0
102
RTVSPost2010PropOp57
 70
     1
  0
XRECORD
  5
1C84
102
{ACAD_REACTORS
330
1C83
102
}
330
1C83
100
AcDbXrecord
280
     1
102
RTVSPost2010Prop28
280
     0
102
RTVSPost2010PropOp28
 70
     1
102
RTVSPost2010Prop29
280
     1
102
RTVSPost2010PropOp29
 70
     1
102
RTVSPost2010Prop30
280
     1
102
RTVSPost2010PropOp30
 70
     1
102
RTVSPost2010Prop31
280
     0
102
RTVSPost2010PropOp31
 70
     1
102
RTVSPost2010Prop32
280
     0
102
RTVSPost2010PropOp32
 70
     1
102
RTVSPost2010Prop33
280
     0
102
RTVSPost2010PropOp33
 70
     1
102
RTVSPost2010Prop34
280
     0
102
RTVSPost2010PropOp34
 70
     1
102
RTVSPost2010Prop35
280
     0
102
RTVSPost2010PropOp35
 70
     1
102
RTVSPost2010Prop36
280
     0
102
RTVSPost2010PropOp36
 70
     1
102
RTVSPost2010Prop37
 90
       50
102
RTVSPost2010PropOp37
 70
     1
102
RTVSPost2010Prop38
140
0.0
102
RTVSPost2010PropOp38
 70
     1
102
RTVSPost2010Prop39
140
1.0
102
RTVSPost2010PropOp39
 70
     1
102
RTVSPost2010Prop40
 90
        0
102
RTVSPost2010PropOp40
 70
     1
102
RTVSPost2010Prop41ColorIndex
 90
       18
102
RTVSPost2010Prop41ColorRGB
 90
        0
102
RTVSPost2010PropOp41
 70
     1
102
RTVSPost2010Prop42
 90
       50
102
RTVSPost2010PropOp42
 70
     1
102
RTVSPost2010Prop43
 90
        3
102
RTVSPost2010PropOp43
 70
     1
102
RTVSPost2010Prop44ColorIndex
 90
        5
102
RTVSPost2010Prop44ColorRGB
 90
      255
102
RTVSPost2010PropOp44
 70
     1
102
RTVSPost2010Prop45
280
     0
102
RTVSPost2010PropOp45
 70
     1
102
RTVSPost2010Prop46
 90
       50
102
RTVSPost2010PropOp46
 70
     1
102
RTVSPost2010Prop47
 90
       50
102
RTVSPost2010PropOp47
 70
     1
102
RTVSPost2010Prop48
 90
       50
102
RTVSPost2010PropOp48
 70
     1
102
RTVSPost2010Prop49
280
     0
102
RTVSPost2010PropOp49
 70
     1
102
RTVSPost2010Prop50
 90
       50
102
RTVSPost2010PropOp50
 70
     1
102
RTVSPost2010Prop51ColorIndex
 90
      256
102
RTVSPost2010Prop51ColorRGB
 90
-16777216
102
RTVSPost2010PropOp51
 70
     0
102
RTVSPost2010Prop52
140
1.0
102
RTVSPost2010PropOp52
 70
     0
102
RTVSPost2010Prop53
 90
        2
102
RTVSPost2010PropOp53
 70
     1
102
RTVSPost2010Prop54
  1
strokes_ogs.tif
102
RTVSPost2010PropOp54
 70
     1
102
RTVSPost2010Prop55
280
     0
102
RTVSPost2010PropOp55
 70
     1
102
RTVSPost2010Prop56
140
1.0
102
RTVSPost2010PropOp56
 70
     1
102
RTVSPost2010Prop57
140
1.0
102
RTVSPost2010PropOp57
 70
     1
  0
XRECORD
  5
1C7E
102
{ACAD_REACTORS
330
1C7D
102
}
330
1C7D
100
AcDbXrecord
280
     1
102
RTVSPost2010Prop28
280
     0
102
RTVSPost2010PropOp28
 70
     1
102
RTVSPost2010Prop29
280
     1
102
RTVSPost2010PropOp29
 70
     1
102
RTVSPost2010Prop30
280
     1
102
RTVSPost2010PropOp30
 70
     1
102
RTVSPost2010Prop31
280
     0
102
RTVSPost2010PropOp31
 70
     1
102
RTVSPost2010Prop32
280
     0
102
RTVSPost2010PropOp32
 70
     1
102
RTVSPost2010Prop33
280
     0
102
RTVSPost2010PropOp33
 70
     1
102
RTVSPost2010Prop34
280
     0
102
RTVSPost2010PropOp34
 70
     1
102
RTVSPost2010Prop35
280
     0
102
RTVSPost2010PropOp35
 70
     1
102
RTVSPost2010Prop36
280
     0
102
RTVSPost2010PropOp36
 70
     1
102
RTVSPost2010Prop37
 90
       50
102
RTVSPost2010PropOp37
 70
     1
102
RTVSPost2010Prop38
140
0.0
102
RTVSPost2010PropOp38
 70
     1
102
RTVSPost2010Prop39
140
1.0
102
RTVSPost2010PropOp39
 70
     1
102
RTVSPost2010Prop40
 90
        0
102
RTVSPost2010PropOp40
 70
     1
102
RTVSPost2010Prop41ColorIndex
 90
       18
102
RTVSPost2010Prop41ColorRGB
 90
        0
102
RTVSPost2010PropOp41
 70
     1
102
RTVSPost2010Prop42
 90
       50
102
RTVSPost2010PropOp42
 70
     1
102
RTVSPost2010Prop43
 90
        3
102
RTVSPost2010PropOp43
 70
     1
102
RTVSPost2010Prop44ColorIndex
 90
        5
102
RTVSPost2010Prop44ColorRGB
 90
      255
102
RTVSPost2010PropOp44
 70
     1
102
RTVSPost2010Prop45
280
     0
102
RTVSPost2010PropOp45
 70
     1
102
RTVSPost2010Prop46
 90
       50
102
RTVSPost2010PropOp46
 70
     1
102
RTVSPost2010Prop47
 90
       50
102
RTVSPost2010PropOp47
 70
     1
102
RTVSPost2010Prop48
 90
       50
102
RTVSPost2010PropOp48
 70
     1
102
RTVSPost2010Prop49
280
     0
102
RTVSPost2010PropOp49
 70
     1
102
RTVSPost2010Prop50
 90
       50
102
RTVSPost2010PropOp50
 70
     1
102
RTVSPost2010Prop51ColorIndex
 90
      256
102
RTVSPost2010Prop51ColorRGB
 90
-16777216
102
RTVSPost2010PropOp51
 70
     0
102
RTVSPost2010Prop52
140
1.0
102
RTVSPost2010PropOp52
 70
     0
102
RTVSPost2010Prop53
 90
        2
102
RTVSPost2010PropOp53
 70
     1
102
RTVSPost2010Prop54
  1
strokes_ogs.tif
102
RTVSPost2010PropOp54
 70
     1
102
RTVSPost2010Prop55
280
     0
102
RTVSPost2010PropOp55
 70
     1
102
RTVSPost2010Prop56
140
1.0
102
RTVSPost2010PropOp56
 70
     1
102
RTVSPost2010Prop57
140
1.0
102
RTVSPost2010PropOp57
 70
     1
  0
XRECORD
  5
1C80
102
{ACAD_REACTORS
330
1C7F
102
}
330
1C7F
100
AcDbXrecord
280
     1
102
RTVSPost2010Prop28
280
     0
102
RTVSPost2010PropOp28
 70
     1
102
RTVSPost2010Prop29
280
     1
102
RTVSPost2010PropOp29
 70
     1
102
RTVSPost2010Prop30
280
     1
102
RTVSPost2010PropOp30
 70
     1
102
RTVSPost2010Prop31
280
     0
102
RTVSPost2010PropOp31
 70
     1
102
RTVSPost2010Prop32
280
     0
102
RTVSPost2010PropOp32
 70
     1
102
RTVSPost2010Prop33
280
     0
102
RTVSPost2010PropOp33
 70
     1
102
RTVSPost2010Prop34
280
     0
102
RTVSPost2010PropOp34
 70
     1
102
RTVSPost2010Prop35
280
     0
102
RTVSPost2010PropOp35
 70
     1
102
RTVSPost2010Prop36
280
     0
102
RTVSPost2010PropOp36
 70
     1
102
RTVSPost2010Prop37
 90
       50
102
RTVSPost2010PropOp37
 70
     1
102
RTVSPost2010Prop38
140
0.0
102
RTVSPost2010PropOp38
 70
     1
102
RTVSPost2010Prop39
140
1.0
102
RTVSPost2010PropOp39
 70
     1
102
RTVSPost2010Prop40
 90
        0
102
RTVSPost2010PropOp40
 70
     1
102
RTVSPost2010Prop41ColorIndex
 90
       18
102
RTVSPost2010Prop41ColorRGB
 90
        0
102
RTVSPost2010PropOp41
 70
     1
102
RTVSPost2010Prop42
 90
       50
102
RTVSPost2010PropOp42
 70
     1
102
RTVSPost2010Prop43
 90
        3
102
RTVSPost2010PropOp43
 70
     1
102
RTVSPost2010Prop44ColorIndex
 90
        5
102
RTVSPost2010Prop44ColorRGB
 90
      255
102
RTVSPost2010PropOp44
 70
     1
102
RTVSPost2010Prop45
280
     0
102
RTVSPost2010PropOp45
 70
     1
102
RTVSPost2010Prop46
 90
       50
102
RTVSPost2010PropOp46
 70
     1
102
RTVSPost2010Prop47
 90
       50
102
RTVSPost2010PropOp47
 70
     1
102
RTVSPost2010Prop48
 90
       50
102
RTVSPost2010PropOp48
 70
     1
102
RTVSPost2010Prop49
280
     0
102
RTVSPost2010PropOp49
 70
     1
102
RTVSPost2010Prop50
 90
       50
102
RTVSPost2010PropOp50
 70
     1
102
RTVSPost2010Prop51ColorIndex
 90
      256
102
RTVSPost2010Prop51ColorRGB
 90
-16777216
102
RTVSPost2010PropOp51
 70
     0
102
RTVSPost2010Prop52
140
1.0
102
RTVSPost2010PropOp52
 70
     0
102
RTVSPost2010Prop53
 90
        2
102
RTVSPost2010PropOp53
 70
     1
102
RTVSPost2010Prop54
  1
strokes_ogs.tif
102
RTVSPost2010PropOp54
 70
     1
102
RTVSPost2010Prop55
280
     0
102
RTVSPost2010PropOp55
 70
     1
102
RTVSPost2010Prop56
140
1.0
102
RTVSPost2010PropOp56
 70
     1
102
RTVSPost2010Prop57
140
1.0
102
RTVSPost2010PropOp57
 70
     1
  0
XRECORD
  5
1C70
102
{ACAD_REACTORS
330
1C6F
102
}
330
1C6F
100
AcDbXrecord
280
     1
102
RTVSPost2010Prop28
280
     0
102
RTVSPost2010PropOp28
 70
     1
102
RTVSPost2010Prop29
280
     1
102
RTVSPost2010PropOp29
 70
     1
102
RTVSPost2010Prop30
280
     1
102
RTVSPost2010PropOp30
 70
     1
102
RTVSPost2010Prop31
280
     0
102
RTVSPost2010PropOp31
 70
     1
102
RTVSPost2010Prop32
280
     0
102
RTVSPost2010PropOp32
 70
     1
102
RTVSPost2010Prop33
280
     0
102
RTVSPost2010PropOp33
 70
     1
102
RTVSPost2010Prop34
280
     0
102
RTVSPost2010PropOp34
 70
     1
102
RTVSPost2010Prop35
280
     0
102
RTVSPost2010PropOp35
 70
     1
102
RTVSPost2010Prop36
280
     0
102
RTVSPost2010PropOp36
 70
     1
102
RTVSPost2010Prop37
 90
       50
102
RTVSPost2010PropOp37
 70
     1
102
RTVSPost2010Prop38
140
0.0
102
RTVSPost2010PropOp38
 70
     1
102
RTVSPost2010Prop39
140
1.0
102
RTVSPost2010PropOp39
 70
     1
102
RTVSPost2010Prop40
 90
        0
102
RTVSPost2010PropOp40
 70
     1
102
RTVSPost2010Prop41ColorIndex
 90
       18
102
RTVSPost2010Prop41ColorRGB
 90
        0
102
RTVSPost2010PropOp41
 70
     1
102
RTVSPost2010Prop42
 90
       50
102
RTVSPost2010PropOp42
 70
     1
102
RTVSPost2010Prop43
 90
        3
102
RTVSPost2010PropOp43
 70
     1
102
RTVSPost2010Prop44ColorIndex
 90
        5
102
RTVSPost2010Prop44ColorRGB
 90
      255
102
RTVSPost2010PropOp44
 70
     1
102
RTVSPost2010Prop45
280
     0
102
RTVSPost2010PropOp45
 70
     1
102
RTVSPost2010Prop46
 90
       50
102
RTVSPost2010PropOp46
 70
     1
102
RTVSPost2010Prop47
 90
       50
102
RTVSPost2010PropOp47
 70
     1
102
RTVSPost2010Prop48
 90
       50
102
RTVSPost2010PropOp48
 70
     1
102
RTVSPost2010Prop49
280
     0
102
RTVSPost2010PropOp49
 70
     1
102
RTVSPost2010Prop50
 90
       50
102
RTVSPost2010PropOp50
 70
     1
102
RTVSPost2010Prop51ColorIndex
 90
      256
102
RTVSPost2010Prop51ColorRGB
 90
-16777216
102
RTVSPost2010PropOp51
 70
     0
102
RTVSPost2010Prop52
140
1.0
102
RTVSPost2010PropOp52
 70
     0
102
RTVSPost2010Prop53
 90
        2
102
RTVSPost2010PropOp53
 70
     1
102
RTVSPost2010Prop54
  1
strokes_ogs.tif
102
RTVSPost2010PropOp54
 70
     1
102
RTVSPost2010Prop55
280
     0
102
RTVSPost2010PropOp55
 70
     1
102
RTVSPost2010Prop56
140
1.0
102
RTVSPost2010PropOp56
 70
     1
102
RTVSPost2010Prop57
140
1.0
102
RTVSPost2010PropOp57
 70
     1
  0
XRECORD
  5
1C62
102
{ACAD_REACTORS
330
1C61
102
}
330
1C61
100
AcDbXrecord
280
     1
102
RTVSPost2010Prop28
280
     0
102
RTVSPost2010PropOp28
 70
     1
102
RTVSPost2010Prop29
280
     1
102
RTVSPost2010PropOp29
 70
     1
102
RTVSPost2010Prop30
280
     1
102
RTVSPost2010PropOp30
 70
     1
102
RTVSPost2010Prop31
280
     0
102
RTVSPost2010PropOp31
 70
     1
102
RTVSPost2010Prop32
280
     0
102
RTVSPost2010PropOp32
 70
     1
102
RTVSPost2010Prop33
280
     0
102
RTVSPost2010PropOp33
 70
     1
102
RTVSPost2010Prop34
280
     0
102
RTVSPost2010PropOp34
 70
     1
102
RTVSPost2010Prop35
280
     0
102
RTVSPost2010PropOp35
 70
     1
102
RTVSPost2010Prop36
280
     0
102
RTVSPost2010PropOp36
 70
     1
102
RTVSPost2010Prop37
 90
       50
102
RTVSPost2010PropOp37
 70
     1
102
RTVSPost2010Prop38
140
0.0
102
RTVSPost2010PropOp38
 70
     1
102
RTVSPost2010Prop39
140
1.0
102
RTVSPost2010PropOp39
 70
     1
102
RTVSPost2010Prop40
 90
        0
102
RTVSPost2010PropOp40
 70
     1
102
RTVSPost2010Prop41ColorIndex
 90
       18
102
RTVSPost2010Prop41ColorRGB
 90
        0
102
RTVSPost2010PropOp41
 70
     1
102
RTVSPost2010Prop42
 90
       50
102
RTVSPost2010PropOp42
 70
     1
102
RTVSPost2010Prop43
 90
        3
102
RTVSPost2010PropOp43
 70
     1
102
RTVSPost2010Prop44ColorIndex
 90
        5
102
RTVSPost2010Prop44ColorRGB
 90
      255
102
RTVSPost2010PropOp44
 70
     1
102
RTVSPost2010Prop45
280
     0
102
RTVSPost2010PropOp45
 70
     1
102
RTVSPost2010Prop46
 90
       50
102
RTVSPost2010PropOp46
 70
     1
102
RTVSPost2010Prop47
 90
       50
102
RTVSPost2010PropOp47
 70
     1
102
RTVSPost2010Prop48
 90
       50
102
RTVSPost2010PropOp48
 70
     1
102
RTVSPost2010Prop49
280
     0
102
RTVSPost2010PropOp49
 70
     1
102
RTVSPost2010Prop50
 90
       50
102
RTVSPost2010PropOp50
 70
     1
102
RTVSPost2010Prop51ColorIndex
 90
      256
102
RTVSPost2010Prop51ColorRGB
 90
-16777216
102
RTVSPost2010PropOp51
 70
     0
102
RTVSPost2010Prop52
140
1.0
102
RTVSPost2010PropOp52
 70
     0
102
RTVSPost2010Prop53
 90
        2
102
RTVSPost2010PropOp53
 70
     1
102
RTVSPost2010Prop54
  1
strokes_ogs.tif
102
RTVSPost2010PropOp54
 70
     1
102
RTVSPost2010Prop55
280
     0
102
RTVSPost2010PropOp55
 70
     1
102
RTVSPost2010Prop56
140
1.0
102
RTVSPost2010PropOp56
 70
     1
102
RTVSPost2010Prop57
140
1.0
102
RTVSPost2010PropOp57
 70
     1
  0
XRECORD
  5
1C82
102
{ACAD_REACTORS
330
1C81
102
}
330
1C81
100
AcDbXrecord
280
     1
102
RTVSPost2010Prop28
280
     0
102
RTVSPost2010PropOp28
 70
     1
102
RTVSPost2010Prop29
280
     1
102
RTVSPost2010PropOp29
 70
     1
102
RTVSPost2010Prop30
280
     1
102
RTVSPost2010PropOp30
 70
     1
102
RTVSPost2010Prop31
280
     0
102
RTVSPost2010PropOp31
 70
     1
102
RTVSPost2010Prop32
280
     0
102
RTVSPost2010PropOp32
 70
     1
102
RTVSPost2010Prop33
280
     0
102
RTVSPost2010PropOp33
 70
     1
102
RTVSPost2010Prop34
280
     0
102
RTVSPost2010PropOp34
 70
     1
102
RTVSPost2010Prop35
280
     0
102
RTVSPost2010PropOp35
 70
     1
102
RTVSPost2010Prop36
280
     0
102
RTVSPost2010PropOp36
 70
     1
102
RTVSPost2010Prop37
 90
       50
102
RTVSPost2010PropOp37
 70
     1
102
RTVSPost2010Prop38
140
0.0
102
RTVSPost2010PropOp38
 70
     1
102
RTVSPost2010Prop39
140
1.0
102
RTVSPost2010PropOp39
 70
     1
102
RTVSPost2010Prop40
 90
        0
102
RTVSPost2010PropOp40
 70
     1
102
RTVSPost2010Prop41ColorIndex
 90
       18
102
RTVSPost2010Prop41ColorRGB
 90
        0
102
RTVSPost2010PropOp41
 70
     1
102
RTVSPost2010Prop42
 90
       50
102
RTVSPost2010PropOp42
 70
     1
102
RTVSPost2010Prop43
 90
        3
102
RTVSPost2010PropOp43
 70
     1
102
RTVSPost2010Prop44ColorIndex
 90
        5
102
RTVSPost2010Prop44ColorRGB
 90
      255
102
RTVSPost2010PropOp44
 70
     1
102
RTVSPost2010Prop45
280
     0
102
RTVSPost2010PropOp45
 70
     1
102
RTVSPost2010Prop46
 90
       50
102
RTVSPost2010PropOp46
 70
     1
102
RTVSPost2010Prop47
 90
       50
102
RTVSPost2010PropOp47
 70
     1
102
RTVSPost2010Prop48
 90
       50
102
RTVSPost2010PropOp48
 70
     1
102
RTVSPost2010Prop49
280
     0
102
RTVSPost2010PropOp49
 70
     1
102
RTVSPost2010Prop50
 90
       50
102
RTVSPost2010PropOp50
 70
     1
102
RTVSPost2010Prop51ColorIndex
 90
      256
102
RTVSPost2010Prop51ColorRGB
 90
-16777216
102
RTVSPost2010PropOp51
 70
     0
102
RTVSPost2010Prop52
140
1.0
102
RTVSPost2010PropOp52
 70
     0
102
RTVSPost2010Prop53
 90
        2
102
RTVSPost2010PropOp53
 70
     1
102
RTVSPost2010Prop54
  1
strokes_ogs.tif
102
RTVSPost2010PropOp54
 70
     1
102
RTVSPost2010Prop55
280
     0
102
RTVSPost2010PropOp55
 70
     1
102
RTVSPost2010Prop56
140
1.0
102
RTVSPost2010PropOp56
 70
     1
102
RTVSPost2010Prop57
140
1.0
102
RTVSPost2010PropOp57
 70
     1
  0
ENDSEC
  0
SECTION
  2
THUMBNAILIMAGE
 90
    24616
310
28000000800000004000000001001800000000000000000000000000000000000000000000000000000000000000000000000000000000000000000000000000000000000000000000000000000000000000000000000000000000000000000000000000FFFFFFFFFFFFFFFFFFFFFFFFFFFFFFFFFFFFFFFFFFFFFFFFFFFFFF
310
FFFFFFFFFFFFFFFFFFFFFFFFFFFFFFFFFFFFFFFFFFFFFFFFFFFFFFFFFFFFFFFFFFFFFFFFFFFFFFFFFFFFFFFFFFFFFFFFFFFFFFFFFFFFFFFFFFFFFFFFFFFFFFFFFFFFFFFFFFFFFFFFFFFFFFFFFFFFFFFFFFFFFFFFFFFFFFFFFFFFFFFFFFFFFFFFFFFFFFFFFFFFFFFFFFFFFFFFFFFFFFFFFFFFFFFFFFFFFFFFFFFFFFFFFFFFFF
310
FFFFFFFFFFFFFFFFFFFFFFFFFFFFFFFFFFFFFFFFFFFFFFFFFFFFFFFFFFFFFFFFFFFFFFFFFFFFFFFFFFFFFFFFFFFFFFFFFFFFFFFFFFFFFFFFFFFFFFFFFFFFFFFFFFFFFFFFFFFFFFFFFFFFFFFFFFFFFFFFFFFFFFFFFFFFFFFFFFFFFFFFFFFFFFFFFFFFFFFFFFFFFFFFFFFFFFFFFFFFFFFFFF0000000000000000000000000000
310
00000000000000000000000000000000000000000000000000000000000000000000000000000000000000000000000000000000000000000000000000000000000000000000000000000000000000000000000000000000000000000000000000000000000000FFFFFF000000000000000000000000000000000000000000
310
00000000000000000000000000000000000000000000000000000000000000000000000000000000000000000000000000000000000000000000000000000000000000000000000000000000000000000000000000000000000000000000000000000000000000000000000000000000000000000000000000000000000000
310
0000000000000000000000000000000000000000000000000000000000000000000000000000000000000000000000000000000000000000000000000000000000000000000000000000000000000000000000000000000000000000000000000000000000000000000000000000000000FFFFFF0000000000000000000000
310
00000000000000000000000000000000000000000000000000000000000000000000000000000000000000000000000000000000000000000000000000000000000000000000000000000000000000000000000000000000000000000000000000000000000000000000FFFFFF00000000BFFF00BFFF00BFFF00BFFF00BFFF
310
00BFFF00BFFF00BFFF00BFFF00BFFF00BFFF00BFFF00BFFF00BFFF00BFFF00BFFF00BFFF00BFFF00BFFF00BFFF00BFFF00BFFF00BFFF00BFFF00BFFF00BFFF00BFFF00BFFF00BFFF00BFFF00BFFF00BFFF00BFFF00BFFF00BFFF00BFFF00BFFF00BFFF00BFFF00BFFF00BFFF00BFFF00BFFF00BFFF00BFFF00BFFF00BFFFFF
310
FFFFFFFFFFFFFFFFFFFFFFFFFFFFFFFFFFFFFFFFFFFFFFFFFFFFFFFFFFFFFFFFFFFFFFFFFFFFFFFFFFFFFFFFFFFFFFFFFFFFFFFFFFFFFFFFFFFFFFFFFFFFFFFFFFFFFFFFFFFFFFFFFFFFFFFFFFFFFFFF007299FFFFFFFFFFFFFFFFFFFFFFFFFFFFFFFFFFFFFFFFFFFFFFFFFFFFFFFFFFFF000000FFFFFF0000000000000000
310
00000000000000000000000000000000000000000000000000000000000000000000000000000000000000000000000000000000000000000000000000000000000000000000000000000000000000000000000000000000000000000000000000000000000000000000000000FFFFFF00000000BFFF000000000000000000
310
00000000000000000000000000000000000000000000000000000000000000000000000000000000000000000000000000000000000000000000000000000000000000000000000000000000000000000000000000000000000000000000000000000000000000000000000000000000000000000000000000000000000000
310
0000FFFFFFFFFFFFFFFFFFFFFFFFFFFFFFFFFFFFFFFFFFFFFFFFFFFFFFFFFFFFFFFFFFFFFFFFFFFFFFFFFFFFFFFFFFFFFFFFFFFFFFFFFFFFFFFFFFFFFFFFFFFFFFFFFFFFFFFFFFFFFFFF007299007299007299007299FFFFFFFFFFFFFFFFFFFFFFFFFFFFFFFFFFFFFFFFFFFFFFFFFFFFFFFFFFFF000000FFFFFF0000000000
310
00000000000000000000000000000000000000000000000000000000000000000000000000000000000000000000000000000000000000000000000000000000000000000000000000000000000000000000000000000000000000000000000000000000000000000000000000000000FFFFFF00000000BFFF000000000000
310
00000000000000000000000000000000000000000000000000000000000000000000000000000000000000000000000000000000000000000000000000000000000000000000000000000000000000000000000000000000000000000000000000000000000000000000000000000000000000000000000000000000000000
310
0000000000FFFFFFFFFFFFFFFFFFFFFFFFFFFFFFFFFFFFFFFFFFFFFFFFFFFFFFFFFFFFFFFFFFFFFFFFFFFFFFFFFFFFFFFFFFFFFFFFFFFFFFFFFFFFFFFFFFFFFFFFFFFFFFFFFFFFFFFFFFFFFFFF007299007299007299007299FFFFFFFFFFFFFFFFFFFFFFFFFFFFFFFFFFFF000000000000000000FFFFFF000000FFFFFF0000
310
00000000000000000000000000000000000000000000000000000000000000000000000000000000000000000000000000000000000000000000000000000000000000000000000000000000000000000000000000000000000000000000000000000000000000000000000000000000000000FFFFFF00000000BFFF000000
310
00000000000000000000000000000000000000000000000000000000000000000000000000000000000000000000000000000000000000000000000000000000000000000000000000000000000000000000000000000000000000000000000000000000000000000000000000000000000000000000000000000000000000
310
0000000000000000FFFFFFFFFFFFFFFFFFFFFFFFFFFFFFFFFFFFFFFFFFFFFFFFFFFFFFFFFFFFFFFFFFFFFFFFFFFFFFFFFFFFFFFFFFFFFFFFFFFFFFFFFFFFFFFFFFFFFFFFFFFFFFFFFFFFFFFFFFFFFFFFFFFFFF007299FFFFFFFFFFFFFFFFFFFFFFFFFFFFFFFFFFFFFFFFFFFFFFFFFFFFFFFFFFFFFFFFFFFFFFFF000000FFFF
310
FF000000000000000000000000000000000000000000000000000000000000000000000000000000000000000000000000000000000000000000000000000000000000000000000000000000000000000000000000000000000000000000000000000000000000000000000000000000000000000000FFFFFF00000000BFFF
310
00000000000000000000000000000000000000000000000000000000000000000000000000000000000000000000000000000000000000000000000000000000000000000000000000000000000000000000000000000000000000000000000000000000000000000000000000000000000000000000000000000000000000
310
0000000000000000000000000000000000000000000000000000000000000000000000000000000000000000000000000000000000000000000000000000000000000000000000000000000000000000FFFFFF007299007299007299FFFFFFFFFFFFFFFFFFFFFFFFFFFFFFFFFFFFFFFFFFFFFFFFFFFFFFFFFFFFFFFFFF0000
310
00FFFFFF000000000000000000000000000000000000000000000000000000000000000000000000000000000000000000000000000000000000000000000000000000000000000000000000000000000000000000000000000000000000000000000000000000000000000000000000000000000000000000FFFFFF000000
310
00BFFF00000000000000000000000000000000000000000000000000000000000000000000000000000000000000000000000000000000000000000000000000000000000000000000000000000000000000000000000000000000000000000000000000000000000000000000000000000000000000000000000000000000
310
0000000000000000000000000000000000000000000000000000000000000000000000000000000000000000000000000000000000000000000000000000000000000000000000000000000000000000000000FFFFFFFFFFFFFFFFFFFFFFFFFFFFFFFFFFFFFFFFFFFFFFFF000000000000000000000000000000000000FFFF
310
FF000000FFFFFF000000000000000000000000000000000000000000000000000000000000000000000000000000000000000000000000000000000000000000000000000000000000000000000000000000000000000000000000000000000000000000000000000000000000000000000000000000000000000000FFFFFF
310
00000000BFFF00000000000000000000000000000000000000000000000000000000000000000000000000000000000000000000000000000000000000000000000000000000000000000000000000000000000000000000000000000000000000000000000000000000000000000000000000000000000000000000000000
310
0000000000000000000000000000000000000000000000000000000000000000000000000000000000000000000000000000000000000000000000000000000000000000000000000000000000000000000000000000FFFFFFFFFFFFFFFFFFFFFFFFFFFFFFFFFFFFFFFFFFFFFFFFFFFFFFFFFFFFFFFFFFFFFFFFFFFFFFFFFF
310
FFFFFFFF000000FFFFFF000000000000000000000000000000000000000000000000000000000000000000000000000000000000000000000000000000000000000000000000000000000000000000000000000000000000000000000000000000000000000000000000000000000000000000000000000000000000000000
310
FFFFFF00000000BFFF00000000000000000000000000000000000000000000000000000000000000000000000000000000000000000000000000000000000000000000000000000000000000000000000000000000000000000000000000000000000000000000000000000000000000000000000000000000000000000000
310
0000000000000000000000000000000000000000000000000000000000000000000000000000000000000000000000000000000000000000000000000000000000000000000000000000000000000000000000000000000000FFFFFFFFFFFFFFFFFFFFFFFFFFFFFFFFFFFFFFFFFFFFFFFFFFFFFFFFFFFFFFFFFFFFFFFFFFFF
310
FF000000FFFFFF000000FFFFFF000000000000000000000000000000000000000000000000000000000000000000000000000000000000000000000000000000000000000000000000000000000000000000000000000000000000000000000000000000000000000000000000000000000000000000000000000000000000
310
000000FFFFFF00000000BFFF00000000000000000000000000000000000000000000000000000000000000000000000000000000000000000000000000000000000000000000000000000000000000000000000000000000000000000000000000000000000000000000000000000000000000000000000000000000000000
310
0000000000000000000000000000000000000000000000000000000000000000000000000000000000000000000000000000000000000000000000000000000000000000000000000000000000000000000000000000000000000000FFFFFFFFFFFF007299FFFFFF007299FFFFFFFFFFFFFFFFFFFFFFFFFFFFFFFFFFFFFFFF
310
FFFFFFFFFFFFFFFFFFFF000000FFFFFF000000000000000000000000000000000000000000000000000000000000000000000000000000000000000000000000000000000000000000000000000000000000000000000000000000000000000000000000000000000000000000000000000000000000000000000000000000
310
000000000000FFFFFF00000000BFFF00000000000000000000000000000000000000000000000000000000000000000000000000000000000000000000000000000000000000000000000000000000000000000000000000000000000000000000000000000000000000000000000000000000000000000000000000000000
310
0000000000000000000000000000000000000000000000000000000000000000000000000000000000000000000000000000000000000000000000000000000000000000000000000000000000000000000000000000000000000000000000000000FFFFFFFFFFFFFFFFFFFFFFFFFFFFFFFFFFFFFFFFFFFFFFFFFFFFFFFFFF
310
FFFFFFFFFFFFFFFFFFFFFFFFFF000000FFFFFF000000000000000000000000000000000000000000000000000000000000000000000000000000000000000000000000000000000000000000000000000000000000000000000000000000000000000000000000000000000000000000000000000000000000000000000000
310
000000000000000000FFFFFF00000000BFFF00000000000000000000000000000000000000000000000000000000000000000000000000000000000000000000000000000000000000000000000000000000000000000000000000000000000000000000000000000000000000000000000000000000000000000000000000
310
00000000000000000000000000000000000000000000000000000000000000000000000000000000000000000000000000000000000000000000000000000000000000000000000000000000000000000000000000000000000000000000000000000000000000000000000000000000000000000000000000000000000000
310
0000000000000000000000000000BFFF000000FFFFFF000000000000000000000000000000000000000000000000000000000000000000000000000000000000000000000000000000000000000000000000000000000000000000000000000000000000000000000000000000000000000000000000000000000000000000
310
000000000000000000000000FFFFFF00000000BFFF00000000000000000000000000000000000000000000000000000000000000000000000000000000000000000000000000000000000000000000000000000000000000000000000000000000000000000000000000000000000000000000000000000000000000000000
310
00000000000000000000000000000000000000000000000000000000000000000000000000000000000000000000000000000000000000000000000000000000000000000000000000000000000000000000000000000000000000000000000000000000000000000000000000000000000000000000000000000000000000
310
0000000000000000000000000000000000BFFF000000FFFFFF000000000000000000000000000000000000000000000000000000000000000000000000000000000000000000000000000000000000000000000000000000000000000000000000000000000000000000000000000000000000000000000000000000000000
310
000000000000000000000000000000FFFFFF00000000BFFF00000000000000000000000000000000000000000000000000000000000000000000000000000000000000000000000000000000000000000000000000000000000000000000000000000000000000000000000000000000000000000000000000000000000000
310
00000000000000000000000000000000000000000000000000000000000000000000000000000000000000000000000000000000000000000000000000000000000000000000000000000000000000000000000000000000000000000000000000000000000000000000000000000000000000000000000000000000000000
310
0000000000000000000000000000000000000000BFFF000000FFFFFF000000000000000000000000000000000000000000000000000000000000000000000000000000000000000000000000000000000000000000000000000000000000000000000000000000000000000000000000000000000000000000000000000000
310
000000000000000000000000000000000000FFFFFF00000000BFFF00000000000000000000000000000000000000000000000000000000000000000000000000000000000000000000000000000000000000000000000000000000000000000000000000000000000000000000000000000000000000000000000000000000
310
00000000000000000000000000000000000000000000000000000000000000000000000000000000000000000000000000000000000000000000000000000000000000000000000000000000000000000000000000000000000000000000000000000000000000000000000000000000000000000000000000000000000000
310
0000000000000000000000000000000000000000000000BFFF000000FFFFFF000000000000000000000000000000000000000000000000000000000000000000000000000000000000000000000000000000000000000000000000000000000000000000000000000000000000000000000000000000000000000000000000
310
000000000000000000000000000000000000000000FFFFFF00000000BFFF000000000000000000000000000000000000000000000000000000000000000000000000000000000000000000000000000000000000000000000000000000000000000000000000000000000000000000000000000000FFFFFFFFFFFFFFFFFFFF
310
FFFFFFFFFFFFFFFF0000000000000000000000000000000000000000000000000000000000000000000000000000000000000000000000000000000000000000000000000000000000000000000000000000000000000000000000000000000000000000000000000000000000000000000000000000000000000000000000
310
0000000000000000000000000000000000000000000000000000BFFF000000FFFFFF000000000000000000000000000000000000000000000000000000000000000000000000000000000000000000000000000000000000000000000000000000000000000000000000000000000000000000000000000000000000000000
310
000000000000000000000000000000000000000000000000FFFFFF00000000BFFF000000000000000000000000000000000000000000000000000000000000000000000000000000000000000000000000000000000000000000000000000000000000000000000000000000000000000000000000000000FFFFFFFFFFFFFF
310
FFFFFFFFFFFFFFFFFFFFFF0000000000000000000000000000000000000000000000000000000000000000000000000000000000000000000000000000000000000000000000000000000000000000000000000000000000000000000000000000000000000000000000000000000000000000000000000000000000000000
310
0000000000000000000000000000000000000000000000000000000000BFFF000000FFFFFF000000000000000000000000000000000000000000000000000000000000000000000000000000000000000000000000000000000000000000000000000000000000000000000000000000000000000000000000000000000000
310
000000000000000000000000000000000000000000000000000000FFFFFF00000000BFFF000000000000000000000000000000000000000000000000000000000000000000000000000000000000000000000000000000000000000000000000000000000000000000000000000000000000000000000000000000FFFFFFFF
310
FFFFFFFFFFFFFFFFFFFFFFFFFFFF0000000000000000000000000000000000000000000000000000000000000000000000000000000000000000000000000000000000000000000000000000000000000000000000000000000000000000000000000000000000000000000000000000000000000000000000000000000000
310
0000000000000000000000000000000000000000000000000000000000000000BFFF000000FFFFFF000000000000000000000000000000000000000000000000000000000000000000000000000000000000000000000000000000000000000000000000000000000000000000000000000000000000000000000000000000
310
000000000000000000000000000000000000000000000000000000000000FFFFFF00000000BFFF00000000000000000000000000000000000000000000000000000000000000000000000000000000000000000000000000000000000000000000000000000000000000000000000000000000000000000000000000000000
310
00000000000000000000000000000000000000000000000000000000000000000000000000000000000000000000000000000000000000000000000000000000000000000000000000000000000000000000000000000000000000000000000000000000000000000000000000000000000000000000000000000000000000
310
0000000000000000000000000000000000000000000000000000000000000000000000BFFF000000FFFFFF000000000000000000000000000000000000000000000000000000000000000000000000000000000000000000000000000000000000000000000000000000000000000000000000000000000000000000000000
310
000000000000000000000000000000000000000000000000000000000000000000FFFFFF00000000BFFF00000000000000000000000000000000000000000000000000000000000000000000000000000000000000000000000000000000000000000000000000000000000000000000000000000000000000000000000000
310
00000000000000000000000000000000000000000000000000000000000000000000000000000000000000000000000000000000000000000000000000000000000000000000000000000000000000000000000000000000000000000000000000000000000000000000000000000000000000000000000000000000000000
310
0000000000000000000000000000000000000000000000000000000000000000000000000000BFFF000000FFFFFF000000000000000000000000000000000000000000000000000000000000000000000000000000000000000000000000000000000000000000000000000000000000000000000000000000000000000000
310
000000000000000000000000000000000000000000000000000000000000000000000000FFFFFF00000000BFFF000000000000000000000000000000000000000000000000000000000000000000000000000000000000000000000000000000000000000000000000000000000000000000000000000000000000000000FF
310
FF000000000000000000000000000000000000000000000000000000000000000000000000000000000000000000000000000000000000000000000000000000000000000000000000000000000000000000000000000000000000000000000000000000000000000000000000000000000000000000000000000000000000
310
0000000000000000000000000000000000000000000000000000000000000000000000000000000000BFFF000000FFFFFF000000000000000000000000000000000000000000000000000000000000000000000000000000000000000000000000000000000000000000000000000000000000000000000000000000000000
310
000000000000000000000000000000000000000000000000000000000000000000000000000000FFFFFF00000000BFFF00000000000000000000000000000000000000000000000000000000000000000000000000000000000000000000000000000000000000000000000000000000000000000000000000000000000000
310
0000FFFFFFFFFFFF0000000000000000000000000000000000000000000000000000000000000000000000000000000000000000000000000000000000000000000000000000000000000000000000000000000000000000000000000000000000000000000000000000000000000000000000000000000000000000000000
310
0000000000000000000000000000000000000000000000000000000000000000000000000000000000000000BFFF000000FFFFFF000000000000000000000000000000000000000000000000000000000000000000000000000000000000000000000000000000000000000000000000000000000000000000000000000000
310
000000000000000000000000000000000000000000000000000000000000000000000000000000000000FFFFFF00000000BFFF00000000000000000000000000000000000000000000000000000000000000000000000000000000000000000000000000000000000000000000000000000000000000000000000000000000
310
0000000000FFFFFF0000004C85994C85994C85994C85994C85994C85994C85994C85994C85994C85994C85994C85994C85994C85994C85994C85994C85994C85994C85994C85994C85994C85994C85994C85994C85994C85994C85994C85994C85994C85994C85994C85994C85994C85994C85994C85994C85994C85994C85
310
994C85994C85994C85994C85994C85994C85994C859900000000000000000000000000000000000000000000000000BFFF000000FFFFFF000000000000000000000000000000000000000000000000000000000000000000000000000000000000000000000000000000000000000000000000000000000000000000000000
310
000000000000000000000000000000000000000000000000000000000000000000000000000000000000000000FFFFFF00000000BFFF00000000000000000000000000000000000000000000000000000000000000000000000000000000000000000000000000000000000000000000000000000000000000000000000000
310
0000000000000000FFFFFF0000004C85994C85994C85994C85994C85994C85994C85990000000000004C85994C85994C85994C85994C85994C85994C85994C85994C85994C85994C85994C85994C85994C85994C85994C85994C85994C85994C85994C85994C85994C85994C85994C85994C85994C85994C85990000004C85
310
994C85994C85994C85994C85994C85994C85994C85994C859900000000000000000000000000000000000000000000000000BFFF000000FFFFFF000000000000000000000000000000000000000000000000000000000000000000000000000000000000000000000000000000000000000000000000000000000000000000
310
000000000000000000000000000000000000000000000000000000000000000000000000000000000000000000000000FFFFFF00000000BFFF00000000000000000000000000000000000000000000000000000000000000000000000000000000000000000000000000000000000000000000000000000000000000000000
310
0000000000000000000000FFFFFF0000004C85994C85994C85994C85994C85994C85994C85994C85994C85990000004C85994C85994C85994C85994C85994C85994C85994C85994C85994C85990000000000004C85994C85994C85994C85994C85994C85994C85994C85994C85994C85994C85994C85990000004C85994C85
310
994C85994C85994C85994C85994C85994C85994C85994C85994C859900000000000000000000000000000000000000000000000000BFFF000000FFFFFF000000000000000000000000000000000000000000000000000000000000000000000000000000000000000000000000000000000000000000000000000000000000
310
000000000000000000000000000000000000000000000000000000000000000000000000000000000000000000000000000000FFFFFF00000000BFFF00000000000000000000000000000000000000000000000000000000000000000000000000000000000000000000000000000000000000000000000000000000000000
310
0000000000000000000000000000FFFFFF0000004C85994C85994C85994C85994C85994C85994C85994C85994C85994C85994C85994C85994C85994C85994C85994C85994C85994C85994C85994C85994C85994C85994C85994C85994C85994C85994C85994C85994C85994C85994C85994C85994C85994C85994C85994C85
310
994C85994C85994C85994C85994C85994C85994C85994C85994C85994C859900000000000000000000000000000000000000000000000000BFFF000000FFFFFF000000000000000000000000000000000000000000000000000000000000000000000000000000000000000000000000000000000000000000000000000000
310
000000000000000000000000000000000000000000000000000000000000000000000000000000000000000000000000000000000000FFFFFF00000000BFFF00000000000000000000000000000000000000000000000000000000000000000000000000000000000000000000000000000000000000000000000000000000
310
0000000000000000000000000000000000FFFFFF0000004C85990000000000000000000000000000000000000000000000000000000000000000000000004C85990000000000000000000000000000000000000000000000000000000000000000000000004C85990000000000000000000000000000000000000000000000
310
000000000000000000004C859900000000000000000000000000000000000000000000000000000000000000000000000000000000000000000000BFFF000000FFFFFF000000000000000000000000000000000000000000000000000000000000000000000000000000000000000000000000000000000000000000000000
310
000000000000000000000000000000000000000000000000000000000000000000000000000000000000000000000000000000000000000000FFFFFF00000000BFFF00000000000000000000000000000000000000000000000000000000000000000000000000000000000000000000000000000000000000000000000000
310
0000000000000000000000000000000000000000FFFFFF0000004C85994C85994C85994C85994C85994C85994C85994C85994C85994C85994C85994C85994C85994C85994C85994C85994C85994C85994C85994C85994C85994C85994C85994C85994C85994C85994C85994C85994C85994C85994C85994C85994C85994C85
310
994C85994C85994C85994C85994C85994C85994C85994C85994C85994C85994C85994C859900000000000000000000000000000000000000000000000000BFFF000000FFFFFF000000000000000000000000000000000000000000000000000000000000000000000000000000000000000000000000000000000000000000
310
000000000000000000000000000000000000000000000000000000000000000000000000000000000000000000000000000000000000000000000000FFFFFF00000000BFFF00000000000000000000000000000000000000000000000000000000000000000000000000000000000000000000000000000000000000000000
310
0000000000000000000000000000000000000000000000FFFFFF0000004C85990000000000000000004C85994C85994C85994C85994C85994C85994C85994C85994C85994C85990000000000000000000000000000000000000000000000000000000000000000000000000000000000000000004C85994C85994C85994C85
310
994C85994C85994C85994C85994C85994C859900000000000000000000000000000000000000000000000000000000000000000000000000000000000000000000BFFF000000FFFFFF000000000000000000000000000000000000000000000000000000000000000000000000000000000000000000000000000000000000
310
000000000000000000000000000000000000000000000000000000000000000000000000000000000000000000000000000000000000000000000000000000FFFFFF00000000BFFF00000000000000000000000000000000000000000000000000000000000000000000000000000000000000000000000000000000000000
310
0000000000000000000000000000000000000000000000000000FFFFFF0000004C85994C85994C85994C85990000000000004C85994C85994C85994C85994C85990000000000000000004C85994C85994C85994C85994C85994C85994C85994C85994C85994C85994C85994C85994C85994C85994C85990000000000004C85
310
994C85994C85994C85994C85990000000000000000004C85994C85994C85994C85994C85994C85994C859900000000000000000000000000000000000000000000000000BFFF000000FFFFFF000000000000000000000000000000000000000000000000000000000000000000000000000000000000000000000000000000
310
000000000000000000000000000000000000000000000000000000000000000000000000000000000000000000000000000000000000000000000000000000000000FFFFFF00000000BFFF00000000000000000000000000000000000000000000000000000000000000000000000000000000000000000000000000000000
310
0000000000000000000000000000000000000000000000000000000000FFFFFF0000004C85994C85994C85994C85990072994C85994C85994C85994C85994C85994C85994C85994C85994C85994C85994C85994C85994C85994C85994C85994C85994C85994C85994C85994C85994C85994C85994C85994C85994C85994C85
310
994C85994C85994C85994C85994C85994C85994C85994C85994C85994C85994C85994C85994C85994C85994C859900000000000000000000000000000000000000000000000000BFFF000000FFFFFF000000000000000000000000000000000000000000000000000000000000000000000000000000000000000000000000
310
000000000000000000000000000000000000000000000000000000000000000000000000000000000000000000000000000000000000000000000000000000000000000000FFFFFF00000000BFFF00000000000000000000000000000000000000000000000000000000000000000000000000000000000000000000000000
310
0000000000000000000000000000000000000000000000000000000000000000FFFFFF0000004C8599000000000000000000FFFFFFFFFFFF0000000000000000000000000000000000000000004C85990000000000000000000000000000000000000000000000000000000000000000000000004C85990000000000000000
310
000000000000000000000000000000000000000000000000004C859900000000000000000000000000000000000000000000000000000000000000000000000000000000000000000000BFFF000000FFFFFF000000000000000000000000000000000000000000000000000000000000000000000000000000000000000000
310
000000000000000000000000000000000000000000000000000000000000000000000000000000000000000000000000000000000000000000000000000000000000000000000000FFFFFF00000000BFFF00000000000000000000000000000000000000000000000000000000000000000000000000000000000000000000
310
0000000000000000000000000000000000000000000000000000000000000000000000FFFFFF0000004C8599000000000000000000FFFFFFFFFFFF0000000000000000000000000000000000000000004C85990000000000000000000000000000000000000000000000000000000000000000000000004C85990000000000
310
000000000000000000000000000000000000000000000000000000004C859900000000000000000000000000000000000000000000000000000000000000000000000000000000000000000000BFFF000000FFFFFF000000000000000000000000000000000000000000000000000000000000000000000000000000000000
310
000000000000000000000000000000000000000000000000000000000000000000000000000000000000000000000000000000000000000000000000000000000000000000000000000000FFFFFF00000000BFFF00000000000000000000000000000000000000000000000000000000000000000000000000000000000000
310
0000000000000000000000000000000000000000000000000000000000000000000000000000FFFFFF0000004C85994C85994C85994C8599FFFFFFFFFFFF4C85994C85994C85994C85994C85994C85994C85994C85994C85994C85994C85994C85994C85994C85994C85994C85994C85994C85994C85994C85994C85994C85
310
994C85994C85994C85994C85994C85994C85994C85994C85994C85994C85994C85994C85994C85994C85994C85994C85994C85994C859900000000000000000000000000000000000000000000000000BFFF000000FFFFFF000000000000000000000000000000000000000000000000000000000000000000000000000000
310
000000000000000000000000000000000000000000000000000000000000000000000000000000000000000000000000000000000000000000000000000000000000000000000000000000000000FFFFFF00000000BFFF00000000000000000000000000000000000000000000000000000000000000000000000000000000
310
0000000000000000000000000000000000000000000000000000000000000000000000000000000000FFFFFF0000004C85994C85994C85994C8599FFFFFFFFFFFF4C85994C85994C85994C85994C85994C85994C85994C85994C85994C85994C85994C85994C85994C85994C85994C85994C85990000000000004C85994C85
310
994C85994C85994C85994C85994C85994C85994C85994C85994C85994C85994C85994C85994C85994C85994C85994C85994C85994C85994C859900000000000000000000000000000000000000000000000000BFFF000000FFFFFF000000000000000000000000000000000000000000000000000000000000000000000000
310
000000000000000000000000000000000000000000000000000000000000000000000000000000000000000000000000000000000000000000000000000000000000000000000000000000000000000000FFFFFF00000000BFFF00000000000000000000000000000000000000000000000000000000000000000000000000
310
0000000000000000000000000000000000000000000000000000000000000000000000000000000000000000FFFFFF000000FFFFFFFFFFFFFFFFFFFFFFFFFFFFFFFFFFFFFFFFFFFFFFFFFFFFFFFFFFFFFFFFFFFFFFFFFFFFFFFFFFFFFFFFFFFFFFFFFFFFFFFFFFFFFFFFFFFFFFFFFFFFFFFFFFFFFFFFFFFFFFFFFFFFFFFFFF
310
FFFFFFFFFFFFFFFFFFFFFFFFFFFFFFFFFFFFFFFFFFFFFFFFFFFFFFFFFFFFFFFFFFFFFFFFFFFFFFFFFFFFFFFFFFFFFFFFFFFFFFFFFFFFFFFFFFFFFFFFFF00000000000000000000000000000000000000000000000000BFFF000000FFFFFF000000000000000000000000000000000000000000000000000000000000000000
310
000000000000000000000000000000000000000000000000000000000000000000000000000000000000000000000000000000000000000000000000000000000000000000000000000000000000000000000000FFFFFF00000000BFFF00000000000000000000000000000000000000000000000000000000000000000000
310
0000000000000000000000000000000000000000000000000000000000000000000000000000000000000000000000FFFFFF000000FFFFFF000000FFFF00000000FFFFFFFFFFFFFFFF00000000FFFF00000000FFFF00000000FFFF00000000FFFF00000000FFFF00000000FFFF00000000FFFF00FFFFFFFFFF00000000FFFF
310
00000000FFFF00000000FFFF00000000FFFF00000000FFFF00000000FFFF00000000FFFF00000000FFFF00000000FFFF00000000FFFF00000000FFFF0000000000000000000000000000000000000000000000000000000000BFFF000000FFFFFF000000000000000000000000000000000000000000000000000000000000
310
000000000000000000000000000000000000000000000000000000000000000000000000000000000000000000000000000000000000000000000000000000000000000000000000000000000000000000000000000000FFFFFF00000000BFFF00000000000000000000000000000000000000000000000000000000000000
310
0000000000000000000000000000000000000000000000000000000000000000000000000000000000000000000000000000FFFFFF000000FFFFFF000000FFFF00000000FFFFFFFFFFFFFFFF00000000FFFF00000000FFFF00000000FFFF00000000FFFF00000000FFFF00000000FFFF00000000FFFF00FFFFFFFFFF000000
310
00FFFF00000000FFFF00000000FFFF00000000FFFF00000000FFFF00000000FFFF00000000FFFF00000000FFFF00000000FFFF00000000FFFF00000000FFFF0000000000000000000000000000000000000000000000000000000000BFFF000000FFFFFF000000000000000000000000000000000000000000000000000000
310
000000000000000000000000000000000000000000000000000000000000000000000000000000000000000000000000000000000000000000000000000000000000000000000000000000000000000000000000000000000000FFFFFF00000000BFFF00000000000000000000000000000000000000000000000000000000
310
0000000000000000000000000000000000000000000000000000000000000000000000000000000000000000000000000000000000FFFFFF000000FFFFFFFFFF00000000FFFF00FFFFFFFFFFFF000000FFFF00000000FFFF00000000FFFF00000000FFFF00000000FFFF00000000FFFF00000000FFFF00000000FFFF00FFFF
310
FFFFFF00000000FFFF00000000FFFF00000000FFFF00000000FFFF00000000FFFF00000000FFFF00000000FFFF00000000FFFF00000000FFFF00000000FFFF00000000FFFF0000000000000000000000000000000000000000000000000000BFFF000000FFFFFF000000000000000000000000000000000000000000000000
310
000000000000000000000000000000000000000000000000000000000000000000000000000000000000000000000000000000000000000000000000000000000000000000000000000000000000000000000000000000000000000000FFFFFF00000000BFFF00000000000000000000000000000000000000000000000000
310
0000000000000000000000000000000000000000000000000000000000000000000000000000000000000000000000000000000000000000FFFFFF000000FFFFFFFFFF00FFFFFFFFFF00FFFFFFFFFFFFFFFFFFFFFF00FFFFFFFFFF00FFFFFFFFFF00FFFFFFFFFF00FFFFFFFFFF00FFFFFFFFFF00FFFFFFFFFF00FFFFFFFFFF
310
00FFFFFFFFFF00FFFFFFFFFF00FFFFFFFFFF00FFFFFFFFFF00FFFFFFFFFF00FFFFFFFFFF00FFFFFFFFFF00FFFFFFFFFF00FFFFFFFFFF00FFFFFFFFFF00FFFFFFFFFF00FFFFFFFFFF0000000000000000000000000000000000000000000000000000BFFF000000FFFFFF000000000000000000000000000000000000000000
310
000000000000000000000000000000000000000000000000000000000000000000000000000000000000000000000000000000000000000000000000000000000000000000000000000000000000000000000000000000000000000000000000FFFFFF00000000BFFF00000000000000000000000000000000000000000000
310
0000000000000000000000000000000000000000000000000000000000000000000000000000000000000000000000000000000000000000000000FFFFFF000000000000FFFF00FFFF00FFFFFFFFFFFFFFFFFFFFFFFFFFFFFFFFFFFFFFFFFFFFFFFFFFFFFFFFFFFFFFFFFFFFFFFFFFFFFFFFFFFFFFFFFFFFFFFFFFFFFFFFFF
310
FFFFFFFFFFFFFFFFFFFFFFFFFFFFFFFFFFFFFFFFFFFFFFFFFFFFFFFFFFFFFFFFFFFFFFFFFFFFFFFFFFFFFFFFFFFFFFFFFFFFFFFFFFFFFFFFFFFFFFFFFFFFFFFFFFFFFFFFFFFFFFFFFFFFFFFF00000000000000000000000000000000000000000000000000BFFF000000FFFFFF000000000000000000000000000000000000
310
000000000000000000000000000000000000000000000000000000000000000000000000000000000000000000000000000000000000000000000000000000000000000000000000000000000000000000000000000000000000000000000000000000FFFFFF00000000BFFF00000000000000000000000000000000000000
310
0000000000000000000000000000000000000000000000000000000000000000000000000000000000000000000000000000000000000000000000000000FFFFFFFFFFFFFFFFFFFFFFFFFFFFFFFFFFFFFFFFFFFFFFFFFFFFFFFFFFFFFFFFFFFFFFFFFFFFFFFFFFFFFFFFFFFFFFFFFFFFFFFFFFFFFFFFFFFFFFFFFFFFFFFFFF
310
FFFFFFFFFFFFFFFFFFFFFFFFFFFFFFFFFFFFFFFFFFFFFFFFFFFFFFFFFFFFFFFFFFFFFFFFFFFFFFFFFFFFFFFFFFFFFFFFFFFFFFFFFFFFFFFFFFFFFFFFFFFFFFFFFFFFFFFFFFFFFFFFFFFFFFFFFFFFFF00000000000000000000000000000000000000000000000000BFFF000000FFFFFF000000000000000000000000000000
310
000000000000000000000000000000000000000000000000000000000000000000000000000000000000000000000000000000000000000000000000000000000000000000000000000000000000000000000000000000000000000000000000000000000000FFFFFF00000000BFFF00000000000000000000000000000000
310
0000000000000000000000000000000000000000000000000000000000000000000000000000000000000000000000000000000000000000000000000000000000000000FFFFFFFFFFFFFFFFFFFFFFFFFFFFFFFFFFFFFFFFFFFFFFFFFFFFFFFFFFFF0000000000000000000000000000000000000000000000000000000000
310
00000000000000000000000000000000FFFFFF00000000000000000000000000000000000000000000000000000000000000000000000000000000000000000000000000000000000000000000000000000000000000000000000000000000000000000000000000000000BFFF000000FFFFFF000000000000000000000000
310
000000000000000000000000000000000000000000000000000000000000000000000000000000000000000000000000000000000000000000000000000000000000000000000000000000000000000000000000000000000000000000000000000000000000000000FFFFFF00000000BFFF00000000000000000000000000
310
0000000000000000000000000000000000000000000000000000000000000000000000000000000000000000000000000000000000000000000000000000000000000000FFFFFF000000000000000000000000000000000000FFFFFF0000000000000000000000000000000000000000000000000000000000000000000000
310
00000000000000000000000000000000000000000000FFFFFFFFFFFFFFFFFFFFFFFFFFFFFF00000000000000000000000000000000000000000000000000000000000000000000000000000000000000000000000000000000000000000000000000000000000000000000000000BFFF000000FFFFFF000000000000000000
310
000000000000000000000000000000000000000000000000000000000000000000000000000000000000000000000000000000000000000000000000000000000000000000000000000000000000000000000000000000000000000000000000000000000000000000000000FFFFFF00000000BFFF00000000000000000000
310
0000000000000000000000000000000000000000000000000000000000000000000000000000000000000000000000000000000000000000000000000000000000000000000000FFFFFF000000000000000000000000000000000000FFFFFF0000000000000000000000000000000000000000000000000000000000000000
310
00000000000000000000000000000000000000000000000000FFFFFFFFFFFFFFFFFFFFFFFFFFFFFFFFFFFFFFFFFFFFFFFFFFFFFFFFFFFFFFFFFFFFFFFF00000000000000000000000000000000000000000000000000000000000000000000000000000000000000000000000000000000BFFF000000FFFFFF000000000000
310
000000000000000000000000000000000000000000000000000000000000000000000000000000000000000000000000000000000000000000000000000000000000000000000000000000000000000000000000000000000000000000000000000000000000000000000000000000FFFFFF00000000BFFF00000000000000
310
0000000000000000000000000000000000000000000000000000000000000000000000000000000000000000000000000000000000000000FFFFFFFFFFFFFFFFFFFFFFFFFFFFFFFFFFFF000000000000000000000000000000000000000000000000FFFFFFFFFFFFFFFFFFFFFFFFFFFFFFFFFFFFFFFFFFFFFFFFFFFFFFFFFF
310
FFFFFFFFFFFFFF000000000000000000000000000000000000000000000000FFFFFFFFFFFFFFFFFFFFFFFFFFFFFFFFFFFFFFFFFFFFFFFFFFFFFFFFFFFFFFFFFF00000000000000000000000000000000000000000000000000000000000000000000000000000000000000000000000000000000BFFF000000FFFFFF000000
310
000000000000000000000000000000000000000000000000000000000000000000000000000000000000000000000000000000000000000000000000000000000000000000000000000000000000000000000000000000000000000000000000000000000000000000000000000000000000FFFFFF00000000BFFF00000000
310
0000000000000000000000000000000000000000000000000000000000000000000000000000000000000000000000000000000000000000000000FFFFFFFFFFFFFFFFFFFFFFFFFFFFFF000000000000000000000000000000000000000000000000000000FFFFFFFFFFFFFFFFFFFFFFFFFFFFFFFFFFFFFFFFFFFFFFFFFFFF
310
FFFFFFFFFFFFFFFFFFFF000000000000000000000000000000000000000000000000FFFFFFFFFFFFFFFFFFFFFFFFFFFFFF00000000000000000000000000000000000000000000000000000000000000000000000000000000000000000000000000000000000000000000000000000000000000000000BFFF000000FFFFFF
310
000000000000000000000000000000000000000000000000000000000000000000000000000000000000000000000000000000000000000000000000000000000000000000000000000000000000000000000000000000000000000000000000000000000000000000000000000000000000000000FFFFFF00000000BFFF00
310
0000000000000000000000000000000000000000000000000000000000000000000000000000000000000000000000000000000000000000000000000000000000000000000000000000000000000000000000000000000000000000000000000000000000000000000000FFFFFFFFFFFFFFFFFFFFFFFFFFFFFFFFFFFFFFFF
310
FFFFFFFFFFFFFFFFFFFFFFFFFFFFFFFF000000000000000000000000000000000000000000000000FFFFFFFFFFFFFFFFFFFFFFFFFFFFFFFFFFFFFFFFFFFFFFFFFFFFFFFFFFFFFFFFFF00000000000000000000000000000000000000000000000000000000000000000000000000000000000000000000000000BFFF000000
310
FFFFFF000000000000000000000000000000000000000000000000000000000000000000000000000000000000000000000000000000000000000000000000000000000000000000000000000000000000000000000000000000000000000000000000000000000000000000000000000000000000000000FFFFFF00000000
310
BFFF000000000000000000000000000000000000000000000000000000000000000000000000000000000000000000000000000000000000000000000000000000000000000000000000000000000000000000000000000000000000000000000000000000000000000000000000000000FFFFFFFFFFFFFFFFFFFFFFFFFFFF
310
FFFFFFFFFFFFFFFFFFFFFFFFFFFFFFFFFFFFFF000000000000000000000000000000000000000000000000000000FFFFFFFFFFFFFFFFFFFFFFFFFFFFFFFFFFFFFFFFFFFFFFFFFFFFFFFFFFFF00000000000000000000000000000000000000000000000000000000000000000000000000000000000000000000000000BFFF
310
000000FFFFFF000000000000000000000000000000000000000000000000000000000000000000000000000000000000000000000000000000000000000000000000000000000000000000000000000000000000000000000000000000000000000000000000000000000000000000000000000000000000000000FFFFFF00
310
000000BFFF0000000000000000000000000000000000000000000000000000000000000000000000000000000000000000000000000000000000000000000000000000000000000000000000000000000000000000000000000000000000000000000000000000000000000000000000000000000000000000000000000000
310
00000000000000000000000000000000000000000000000000000000000000000000000000000000000000000000000000000000000000000000000000000000000000000000000000000000000000000000000000000000000000000000000000000000000000000000000000000000000000000000000000000000000000
310
00BFFF000000FFFFFF000000000000000000000000000000000000000000000000000000000000000000000000000000000000000000000000000000000000000000000000000000000000000000000000000000000000000000000000000000000000000000000000000000000000000000000000000000000000000000FF
310
FFFF00000000BFFF0000000000000000000000000000000000000000000000000000000000000000000000000000000000000000000000000000000000000000000000000000000000000000000000000000000000000000000000000000000000000000000000000000000000000000000000000000000000000000000000
310
00000000000000000000000000000000000000000000000000000000000000000000000000000000000000000000000000000000000000000000000000000000000000000000000000000000000000000000000000000000000000000000000000000000000000000000000000000000000000000000000000000000000000
310
00000000BFFF000000FFFFFF00000000000000000000000000000000000000000000000000000000000000000000000000000000000000000000000000000000000000000000000000000000000000000000000000000000000000000000000000000000000000000000000000000000000000000000000000000000000000
310
0000FFFFFF00000000BFFF0000000000000000000000000000000000000000000000000000000000000000000000000000000000000000000000000000000000000000000000000000000000000000000000000000000000000000000000000000000000000000000000000000000000000000000000000000000000000000
310
00000000000000000000000000000000000000000000000000000000000000000000000000000000000000000000000000000000000000000000000000000000000000000000000000000000000000000000000000000000000000000000000000000000000000000000000000000000000000000000000000000000000000
310
00000000000000BFFF000000FFFFFF00000000000000000000000000000000000000000000000000000000000000000000000000000000000000000000000000000000000000000000000000000000000000000000000000000000000000000000000000000000000000000000000000000000000000000000000000000000
310
0000000000FFFFFF00000000BFFF0000000000000000000000000000000000000000000000000000000000000000000000000000000000000000000000000000000000000000000000000000000000000000000000000000000000000000000000000000000000000000000000000000000000000000000000000000000000
310
00000000000000000000000000000000000000000000000000000000000000000000000000000000000000000000000000000000000000000000000000000000000000000000000000000000000000000000000000000000000000000000000000000000000000000000000000000000000000000000000000000000000000
310
00000000000000000000BFFF000000FFFFFF00000000000000000000000000000000000000000000000000000000000000000000000000000000000000000000000000000000000000000000000000000000000000000000000000000000000000000000000000000000000000000000000000000000000000000000000000
310
0000000000000000FFFFFF00000000BFFF0000000000000000000000000000000000000000000000000000000000000000000000000000000000000000000000000000000000000000000000000000000000000000000000000000000000000000000000000000000000000000000000000000000000000000000000000000
310
00000000000000000000000000000000000000000000000000000000000000000000000000000000000000000000000000000000000000000000000000000000000000000000000000000000000000000000000000000000000000000000000000000000000000000000000000000000000000000000000000000000000000
310
00000000000000000000000000BFFF000000FFFFFF00000000000000000000000000000000000000000000000000000000000000000000000000000000000000000000000000000000000000000000000000000000000000000000000000000000000000000000000000000000000000000000000000000000000000000000
310
0000000000000000000000FFFFFF00000000BFFF0000000000000000000000000000000000000000000000000000000000000000000000000000000000000000000000000000000000000000000000000000000000000000000000000000000000000000000000000000000000000000000000000000000000000000000000
310
00000000000000000000000000000000000000000000000000000000000000000000000000000000000000000000000000000000000000000000000000000000000000000000000000000000000000000000000000000000000000000000000000000000000000000000000000000000000000000000000000000000000000
310
00000000000000000000000000000000BFFF000000FFFFFF00000000000000000000000000000000000000000000000000000000000000000000000000000000000000000000000000000000000000000000000000000000000000000000000000000000000000000000000000000000000000000000000000000000000000
310
0000000000000000000000000000FFFFFF00000000BFFF0000000000000000000000000000000000000000000000000000000000000000000000000000000000000000000000000000000000000000000000000000000000000000000000000000000000000000000000000000000000000000000000000000000000000000
310
00000000000000000000000000000000000000000000000000000000000000000000000000000000000000000000000000000000000000000000000000000000000000000000000000000000000000000000000000000000000000000000000000000000000000000000000000000000000000000000000000000000000000
310
00000000000000000000000000000000000000BFFF000000FFFFFF00000000000000000000000000000000000000000000000000000000000000000000000000000000000000000000000000000000000000000000000000000000000000000000000000000000000000000000000000000000000000000000000000000000
310
0000000000000000000000000000000000FFFFFF00000000BFFF0000000000000000000000000000000000000000000000000000000000000000000000000000000000000000000000000000000000000000000000000000000000000000000000000000000000000000000000000000000000000000000000000000000000
310
00000000000000000000000000000000000000000000000000000000000000000000000000000000000000000000000000000000000000000000000000000000000000000000000000000000000000000000000000000000000000000000000000000000000000000000000000000000000000000000000000000000000000
310
00000000000000000000000000000000000000000000BFFF000000FFFFFF00000000000000000000000000000000000000000000000000000000000000000000000000000000000000000000000000000000000000000000000000000000000000000000000000000000000000000000000000000000000000000000000000
310
0000000000000000000000000000000000000000FFFFFF00000000BFFF0000000000000000000000000000000000000000000000000000000000000000000000000000000000000000000000000000000000000000000000000000000000000000000000000000000000000000000000000000000000000000000000000000
310
00000000000000000000000000000000000000000000000000000000000000000000000000000000000000000000000000000000000000000000000000000000000000000000000000000000000000000000000000000000000000000000000000000000000000000000000000000000000000000000000000000000000000
310
00000000000000000000000000000000000000000000000000BFFF000000FFFFFF00000000000000000000000000000000000000000000000000000000000000000000000000000000000000000000000000000000000000000000000000000000000000000000000000000000000000000000000000000000000000000000
310
0000000000000000000000000000000000000000000000FFFFFF00000000BFFF0000000000000000000000000000000000000000000000000000000000000000000000000000000000000000000000000000000000000000000000000000000000000000000000000000000000000000000000000000000000000000000000
310
00000000000000000000000000000000000000000000000000000000000000000000000000000000000000000000000000000000000000000000000000000000000000000000000000000000000000000000000000000000000000000000000000000000000000000000000000000000000000000000000000000000000000
310
00000000000000000000000000000000000000000000000000000000BFFF000000FFFFFF00000000000000000000000000000000000000000000000000000000000000000000000000000000000000000000000000000000000000000000000000000000000000000000000000000000000000000000000000000000000000
310
0000000000000000000000000000000000000000000000000000FFFFFF00000000BFFF00BFFF00BFFF00BFFF00BFFF00BFFF00BFFF00BFFF00BFFF00BFFF00BFFF00BFFF00BFFF00BFFF00BFFF00BFFF00BFFF00BFFF00BFFF00BFFF00BFFF00BFFF00BFFF00BFFF00BFFF00BFFF00BFFF00BFFF00BFFF00BFFF00BFFF00BF
310
FF00BFFF00BFFF00BFFF00BFFF00BFFF00BFFF00BFFF00BFFF00BFFF00BFFF00BFFF00BFFF00BFFF00BFFF00BFFF00BFFF00BFFF00BFFF00BFFF00BFFF00BFFF00BFFF00BFFF00BFFF00BFFF00BFFF00BFFF00BFFF00BFFF00BFFF00BFFF00BFFF00BFFF00BFFF00BFFF00BFFF00BFFF00BFFF00BFFF00BFFF00BFFF00BFFF
310
00BFFF00BFFF00BFFF00BFFF00BFFF00BFFF00BFFF00BFFF00BFFF00BFFF00BFFF000000FFFFFF00000000000000000000000000000000000000000000000000000000000000000000000000000000000000000000000000000000000000000000000000000000000000000000000000000000000000000000000000000000
310
0000000000000000000000000000000000000000000000000000000000FFFFFF0000000000000000000000000000000000000000000000000000000000000000000000000000000000000000000000000000000000000000000000000000000000000000000000000000000000000000000000000000000000000000000000
310
00000000000000000000000000000000000000000000000000000000000000000000000000000000000000000000000000000000000000000000000000000000000000000000000000000000000000000000000000000000000000000000000000000000000000000000000000000000000000000000000000000000000000
310
000000000000000000000000000000000000000000000000000000000000000000000000000000FFFFFF00000000000000000000000000000000000000000000000000000000000000000000000000000000000000000000000000000000000000000000000000000000000000000000000000000000000000000000000000
310
0000000000000000000000000000000000000000000000000000000000000000FFFFFFFFFFFFFFFFFFFFFFFFFFFFFFFFFFFFFFFFFFFFFFFFFFFFFFFFFFFFFFFFFFFFFFFFFFFFFFFFFFFFFFFFFFFFFFFFFFFFFFFFFFFFFFFFFFFFFFFFFFFFFFFFFFFFFFFFFFFFFFFFFFFFFFFFFFFFFFFFFFFFFFFFFFFFFFFFFFFFFFFFFFFFFF
310
FFFFFFFFFFFFFFFFFFFFFFFFFFFFFFFFFFFFFFFFFFFFFFFFFFFFFFFFFFFFFFFFFFFFFFFFFFFFFFFFFFFFFFFFFFFFFFFFFFFFFFFFFFFFFFFFFFFFFFFFFFFFFFFFFFFFFFFFFFFFFFFFFFFFFFFFFFFFFFFFFFFFFFFFFFFFFFFFFFFFFFFFFFFFFFFFFFFFFFFFFFFFFFFFFFFFFFFFFFFFFFFFFFFFFFFFFFFFFFFFFFFFFFFFFFFFFF
310
FFFFFFFFFFFFFFFFFFFFFFFFFFFFFFFFFFFFFFFFFFFFFFFFFFFFFFFFFFFFFFFFFFFFFFFFFFFFFFFFFFFFFFFFFF00000000000000000000000000000000000000000000000000000000000000000000000000000000000000000000000000000000000000000000000000000000000000000000000000000000000000000000
310
00000000000000000000000000000000000000000000000000000000000000000000000000000000000000000000000000000000000000000000000000000000000000000000000000000000000000000000000000000000000000000000000000000000000000000000000000000000000000000000000000000000000000
310
00000000000000000000000000000000000000000000000000000000000000000000000000000000000000000000000000000000000000000000000000000000000000000000000000000000000000000000000000000000000000000000000000000000000000000000000000000000000000000000000000000000000000
310
000000000000000000000000000000000000000000000000000000000000000000000000000000000000000000000000000000000000000000000000000000000000000000000000000000000000000000000000000000000000000000000000000000000000000000
  0
ENDSEC
  0
EOF
